ISO-10303-21;
HEADER;
FILE_DESCRIPTION (( 'STEP AP203' ),
    '1' );
FILE_NAME ('350503.STEP',
    '2017-01-16T23:07:06',
    ( 'temp' ),
    ( '' ),
    'SwSTEP 2.0',
    'SolidWorks 2016',
    '' );
FILE_SCHEMA (( 'CONFIG_CONTROL_DESIGN' ));
ENDSEC;

DATA;
#1 = LINE ( 'NONE', #31, #207 ) ;
#2 =( NAMED_UNIT ( * ) SI_UNIT ( $, .STERADIAN. ) SOLID_ANGLE_UNIT ( ) );
#3 = AXIS2_PLACEMENT_3D ( 'NONE', #91, #126, #189 ) ;
#4 = CARTESIAN_POINT ( 'NONE',  ( 0.0000000000000000000, -1.544999999999999700, 0.0000000000000000000 ) ) ;
#5 = CARTESIAN_POINT ( 'NONE',  ( 9.460396523413304100E-017, -1.545000000000000200, 0.0000000000000000000 ) ) ;
#6 = UNCERTAINTY_MEASURE_WITH_UNIT (LENGTH_MEASURE( 1.000000000000000100E-005 ), #9, 'distance_accuracy_value', 'NONE');
#7 = CLOSED_SHELL ( 'NONE', ( #167, #132, #75, #148, #35 ) ) ;
#8 = ORIENTED_EDGE ( 'NONE', *, *, #190, .T. ) ;
#9 =( CONVERSION_BASED_UNIT ( 'INCH', #22 ) LENGTH_UNIT ( ) NAMED_UNIT ( #95 ) );
#10 = VERTEX_POINT ( 'NONE', #12 ) ;
#11 = EDGE_CURVE ( 'NONE', #199, #194, #33, .T. ) ;
#12 = CARTESIAN_POINT ( 'NONE',  ( -5.394338668512640100E-015, -1.544999999999999700, 1.544999999999999700 ) ) ;
#13 = DIRECTION ( 'NONE',  ( -1.000000000000000000, 0.0000000000000000000, -3.491481338843133000E-015 ) ) ;
#14 = SHAPE_DEFINITION_REPRESENTATION ( #54, #40 ) ;
#15 = ORIENTED_EDGE ( 'NONE', *, *, #65, .F. ) ;
#16 = AXIS2_PLACEMENT_3D ( 'NONE', #5, #177, #89 ) ;
#17 = ORIENTED_EDGE ( 'NONE', *, *, #118, .F. ) ;
#18 = CC_DESIGN_PERSON_AND_ORGANIZATION_ASSIGNMENT ( #84, #103, ( #187 ) ) ;
#19 = VECTOR ( 'NONE', #188, 39.37007874015748100 ) ;
#20 = CC_DESIGN_DATE_AND_TIME_ASSIGNMENT ( #99, #139, ( #169 ) ) ;
#21 = EDGE_LOOP ( 'NONE', ( #30, #129, #172, #115 ) ) ;
#22 = LENGTH_MEASURE_WITH_UNIT ( LENGTH_MEASURE( 0.02539999999999999900 ), #192 );
#23 = SECURITY_CLASSIFICATION_LEVEL ( 'unclassified' ) ;
#24 = ORIENTED_EDGE ( 'NONE', *, *, #65, .T. ) ;
#25 = DIRECTION ( 'NONE',  ( 1.137559009093340600E-029, -1.000000000000000000, -3.258098493719170800E-015 ) ) ;
#26 = CC_DESIGN_PERSON_AND_ORGANIZATION_ASSIGNMENT ( #86, #59, ( #187 ) ) ;
#27 = AXIS2_PLACEMENT_3D ( 'NONE', #56, #13, #196 ) ;
#28 = DATE_TIME_ROLE ( 'creation_date' ) ;
#29 = CARTESIAN_POINT ( 'NONE',  ( 0.0000000000000000000, 0.0000000000000000000, 0.0000000000000000000 ) ) ;
#30 = ORIENTED_EDGE ( 'NONE', *, *, #190, .F. ) ;
#31 = CARTESIAN_POINT ( 'NONE',  ( 0.0000000000000000000, 0.0000000000000000000, 0.0000000000000000000 ) ) ;
#32 = CC_DESIGN_APPROVAL ( #143, ( #119 ) ) ;
#33 = CIRCLE ( 'NONE', #110, 1.500000000000000200 ) ;
#34 = CIRCLE ( 'NONE', #208, 1.544999999999999700 ) ;
#35 = ADVANCED_FACE ( 'NONE', ( #145 ), #212, .T. ) ;
#36 = ORIENTED_EDGE ( 'NONE', *, *, #182, .F. ) ;
#37 = MECHANICAL_CONTEXT ( 'NONE', #181, 'mechanical' ) ;
#38 = DIRECTION ( 'NONE',  ( -3.491481338843133400E-015, 0.0000000000000000000, 1.000000000000000000 ) ) ;
#39 = LOCAL_TIME ( 15, 7, 6.000000000000000000, #57 ) ;
#40 = ADVANCED_BREP_SHAPE_REPRESENTATION ( '350503', ( #138, #83 ), #161 ) ;
#41 = VERTEX_POINT ( 'NONE', #117 ) ;
#42 = DIRECTION ( 'NONE',  ( -0.0000000000000000000, 1.000000000000000000, 0.0000000000000000000 ) ) ;
#43 = DIRECTION ( 'NONE',  ( 1.000000000000000000, 0.0000000000000000000, 3.491481338843133400E-015 ) ) ;
#44 = VERTEX_POINT ( 'NONE', #198 ) ;
#45 = APPROVAL_DATE_TIME ( #51, #143 ) ;
#46 = SPHERICAL_SURFACE ( 'NONE', #201, 1.545000000000000200 ) ;
#47 = APPLICATION_CONTEXT ( 'configuration controlled 3d designs of mechanical parts and assemblies' ) ;
#48 = APPLICATION_PROTOCOL_DEFINITION ( 'international standard', 'config_control_design', 1994, #47 ) ;
#49 = CALENDAR_DATE ( 2017, 16, 1 ) ;
#50 = AXIS2_PLACEMENT_3D ( 'NONE', #213, #209, #179 ) ;
#51 = DATE_AND_TIME ( #49, #39 ) ;
#52 = EDGE_LOOP ( 'NONE', ( #170, #36, #58 ) ) ;
#53 = ORIENTED_EDGE ( 'NONE', *, *, #182, .T. ) ;
#54 = PRODUCT_DEFINITION_SHAPE ( 'NONE', 'NONE',  #119 ) ;
#55 = DIRECTION ( 'NONE',  ( 1.000000000000000000, 0.0000000000000000000, 3.491481338843133400E-015 ) ) ;
#56 = CARTESIAN_POINT ( 'NONE',  ( -3.303079791955400600E-031, -1.545000000000000200, 9.460396523413304100E-017 ) ) ;
#57 = COORDINATED_UNIVERSAL_TIME_OFFSET ( 8, 0, .BEHIND. ) ;
#58 = ORIENTED_EDGE ( 'NONE', *, *, #11, .F. ) ;
#59 = PERSON_AND_ORGANIZATION_ROLE ( 'design_supplier' ) ;
#60 = COORDINATED_UNIVERSAL_TIME_OFFSET ( 8, 0, .BEHIND. ) ;
#61 = LOCAL_TIME ( 15, 7, 6.000000000000000000, #60 ) ;
#62 = CC_DESIGN_APPROVAL ( #151, ( #169 ) ) ;
#63 = CC_DESIGN_SECURITY_CLASSIFICATION ( #169, ( #187 ) ) ;
#64 = DATE_AND_TIME ( #67, #61 ) ;
#65 = EDGE_CURVE ( 'NONE', #10, #41, #127, .T. ) ;
#66 = APPROVAL_ROLE ( '' ) ;
#67 = CALENDAR_DATE ( 2017, 16, 1 ) ;
#68 = PERSON_AND_ORGANIZATION ( #122, #141 ) ;
#69 = APPROVAL_PERSON_ORGANIZATION ( #68, #136, #112 ) ;
#70 = PERSON_AND_ORGANIZATION_ROLE ( 'classification_officer' ) ;
#71 = COORDINATED_UNIVERSAL_TIME_OFFSET ( 8, 0, .BEHIND. ) ;
#72 = CC_DESIGN_APPROVAL ( #136, ( #187 ) ) ;
#73 = VERTEX_POINT ( 'NONE', #121 ) ;
#74 = VECTOR ( 'NONE', #165, 39.37007874015748100 ) ;
#75 = ADVANCED_FACE ( 'NONE', ( #133 ), #137, .F. ) ;
#76 = DATE_AND_TIME ( #78, #158 ) ;
#77 = CC_DESIGN_DATE_AND_TIME_ASSIGNMENT ( #64, #28, ( #119 ) ) ;
#78 = CALENDAR_DATE ( 2017, 16, 1 ) ;
#79 = DIRECTION ( 'NONE',  ( 3.491481338843133000E-015, 0.0000000000000000000, -1.000000000000000000 ) ) ;
#80 = PRODUCT_RELATED_PRODUCT_CATEGORY ( 'detail', '', ( #147 ) ) ;
#81 = ORIENTED_EDGE ( 'NONE', *, *, #96, .F. ) ;
#82 = ORIENTED_EDGE ( 'NONE', *, *, #166, .T. ) ;
#83 = AXIS2_PLACEMENT_3D ( 'NONE', #29, #175, #197 ) ;
#84 = PERSON_AND_ORGANIZATION ( #122, #141 ) ;
#85 = PERSON_AND_ORGANIZATION ( #122, #141 ) ;
#86 = PERSON_AND_ORGANIZATION ( #122, #141 ) ;
#87 = AXIS2_PLACEMENT_3D ( 'NONE', #211, #97, #130 ) ;
#88 = APPROVAL_DATE_TIME ( #76, #136 ) ;
#89 = DIRECTION ( 'NONE',  ( -1.000000000000000000, 0.0000000000000000000, 0.0000000000000000000 ) ) ;
#90 = COORDINATED_UNIVERSAL_TIME_OFFSET ( 8, 0, .BEHIND. ) ;
#91 = CARTESIAN_POINT ( 'NONE',  ( 9.460396523413304100E-017, -1.545000000000000200, 0.0000000000000000000 ) ) ;
#92 = PLANE ( 'NONE',  #203 ) ;
#93 = LOCAL_TIME ( 15, 7, 6.000000000000000000, #90 ) ;
#94 = CALENDAR_DATE ( 2017, 16, 1 ) ;
#95 = DIMENSIONAL_EXPONENTS ( 1.000000000000000000, 0.0000000000000000000, 0.0000000000000000000, 0.0000000000000000000, 0.0000000000000000000, 0.0000000000000000000, 0.0000000000000000000 ) ;
#96 = EDGE_CURVE ( 'NONE', #10, #44, #34, .T. ) ;
#97 = DIRECTION ( 'NONE',  ( -0.0000000000000000000, -0.0000000000000000000, -1.000000000000000000 ) ) ;
#98 = PERSON_AND_ORGANIZATION ( #122, #141 ) ;
#99 = DATE_AND_TIME ( #94, #93 ) ;
#100 = COORDINATED_UNIVERSAL_TIME_OFFSET ( 8, 0, .BEHIND. ) ;
#101 = DIRECTION ( 'NONE',  ( 3.491481338843133000E-015, 0.0000000000000000000, -1.000000000000000000 ) ) ;
#102 = APPROVAL_PERSON_ORGANIZATION ( #98, #151, #66 ) ;
#103 = PERSON_AND_ORGANIZATION_ROLE ( 'creator' ) ;
#104 = CARTESIAN_POINT ( 'NONE',  ( -3.303079791955400600E-031, -1.545000000000000200, 9.460396523413304100E-017 ) ) ;
#105 = EDGE_CURVE ( 'NONE', #73, #44, #160, .T. ) ;
#106 = LOCAL_TIME ( 15, 7, 6.000000000000000000, #100 ) ;
#107 = CALENDAR_DATE ( 2017, 16, 1 ) ;
#108 = APPROVAL_DATE_TIME ( #109, #151 ) ;
#109 = DATE_AND_TIME ( #107, #106 ) ;
#110 = AXIS2_PLACEMENT_3D ( 'NONE', #164, #55, #101 ) ;
#111 = CARTESIAN_POINT ( 'NONE',  ( -5.237222008264700000E-015, -1.544999999999999700, 1.500000000000000200 ) ) ;
#112 = APPROVAL_ROLE ( '' ) ;
#113 = PERSON_AND_ORGANIZATION_ROLE ( 'design_owner' ) ;
#114 = DIRECTION ( 'NONE',  ( 0.0000000000000000000, 0.0000000000000000000, 1.000000000000000000 ) ) ;
#115 = ORIENTED_EDGE ( 'NONE', *, *, #166, .F. ) ;
#116 = EDGE_CURVE ( 'NONE', #199, #73, #180, .T. ) ;
#117 = CARTESIAN_POINT ( 'NONE',  ( 0.0000000000000000000, 0.0000000000000000000, 0.0000000000000000000 ) ) ;
#118 = EDGE_CURVE ( 'NONE', #194, #10, #128, .T. ) ;
#119 = PRODUCT_DEFINITION ( 'UNKNOWN', '', #187, #146 ) ;
#120 = EDGE_LOOP ( 'NONE', ( #200, #8, #15 ) ) ;
#121 = CARTESIAN_POINT ( 'NONE',  ( 1.500000000000000200, -1.544999999999999700, 0.0000000000000000000 ) ) ;
#122 = PERSON ( 'UNSPECIFIED', 'UNSPECIFIED', 'UNSPECIFIED', ('UNSPECIFIED'), ('UNSPECIFIED'), ('UNSPECIFIED') ) ;
#123 = CARTESIAN_POINT ( 'NONE',  ( 5.119015540920024600E-031, -0.04499999999999992900, -1.466144322173624500E-016 ) ) ;
#124 = PERSON_AND_ORGANIZATION_ROLE ( 'creator' ) ;
#125 = AXIS2_PLACEMENT_3D ( 'NONE', #168, #42, #114 ) ;
#126 = DIRECTION ( 'NONE',  ( 0.0000000000000000000, 0.0000000000000000000, 1.000000000000000000 ) ) ;
#127 = CIRCLE ( 'NONE', #50, 1.545000000000000200 ) ;
#128 = LINE ( 'NONE', #144, #74 ) ;
#129 = ORIENTED_EDGE ( 'NONE', *, *, #105, .F. ) ;
#130 = DIRECTION ( 'NONE',  ( -1.000000000000000000, 0.0000000000000000000, 0.0000000000000000000 ) ) ;
#131 =( NAMED_UNIT ( * ) PLANE_ANGLE_UNIT ( ) SI_UNIT ( $, .RADIAN. ) );
#132 = ADVANCED_FACE ( 'NONE', ( #206 ), #185, .F. ) ;
#133 = FACE_OUTER_BOUND ( 'NONE', #52, .T. ) ;
#134 = ORIENTED_EDGE ( 'NONE', *, *, #105, .T. ) ;
#135 = DIRECTION ( 'NONE',  ( 0.0000000000000000000, 0.0000000000000000000, 1.000000000000000000 ) ) ;
#136 = APPROVAL ( #154, 'UNSPECIFIED' ) ;
#137 = SPHERICAL_SURFACE ( 'NONE', #27, 1.500000000000000200 ) ;
#138 = MANIFOLD_SOLID_BREP ( 'Revolve1', #7 ) ;
#139 = DATE_TIME_ROLE ( 'classification_date' ) ;
#140 = FACE_OUTER_BOUND ( 'NONE', #153, .T. ) ;
#141 = ORGANIZATION ( 'UNSPECIFIED', 'UNSPECIFIED', '' ) ;
#142 = APPROVAL_STATUS ( 'not_yet_approved' ) ;
#143 = APPROVAL ( #142, 'UNSPECIFIED' ) ;
#144 = CARTESIAN_POINT ( 'NONE',  ( -5.237222008264700000E-015, -1.544999999999999700, 1.500000000000000200 ) ) ;
#145 = FACE_OUTER_BOUND ( 'NONE', #21, .T. ) ;
#146 = DESIGN_CONTEXT ( 'detailed design', #47, 'design' ) ;
#147 = PRODUCT ( '350503', '350503', '', ( #37 ) ) ;
#148 = ADVANCED_FACE ( 'NONE', ( #140 ), #92, .F. ) ;
#149 = CARTESIAN_POINT ( 'NONE',  ( 1.500000000000000200, -1.544999999999999700, 0.0000000000000000000 ) ) ;
#150 = PERSON_AND_ORGANIZATION ( #122, #141 ) ;
#151 = APPROVAL ( #202, 'UNSPECIFIED' ) ;
#152 = DIRECTION ( 'NONE',  ( -0.0000000000000000000, 1.000000000000000000, -0.0000000000000000000 ) ) ;
#153 = EDGE_LOOP ( 'NONE', ( #24, #82, #204, #195 ) ) ;
#154 = APPROVAL_STATUS ( 'not_yet_approved' ) ;
#155 = PERSON_AND_ORGANIZATION ( #122, #141 ) ;
#156 = CIRCLE ( 'NONE', #3, 1.545000000000000200 ) ;
#157 = APPROVAL_PERSON_ORGANIZATION ( #150, #143, #171 ) ;
#158 = LOCAL_TIME ( 15, 7, 6.000000000000000000, #71 ) ;
#159 = CC_DESIGN_PERSON_AND_ORGANIZATION_ASSIGNMENT ( #85, #70, ( #169 ) ) ;
#160 = LINE ( 'NONE', #149, #19 ) ;
#161 =( GEOMETRIC_REPRESENTATION_CONTEXT ( 3 ) GLOBAL_UNCERTAINTY_ASSIGNED_CONTEXT ( ( #6 ) ) GLOBAL_UNIT_ASSIGNED_CONTEXT ( ( #9, #131, #2 ) ) REPRESENTATION_CONTEXT ( 'NONE', 'WORKASPACE' ) );
#162 = CC_DESIGN_PERSON_AND_ORGANIZATION_ASSIGNMENT ( #155, #113, ( #147 ) ) ;
#163 = DIRECTION ( 'NONE',  ( -0.0000000000000000000, 1.000000000000000000, -0.0000000000000000000 ) ) ;
#164 = CARTESIAN_POINT ( 'NONE',  ( -3.303079791955400600E-031, -1.545000000000000200, 9.460396523413304100E-017 ) ) ;
#165 = DIRECTION ( 'NONE',  ( -3.491481338843133000E-015, 0.0000000000000000000, 1.000000000000000000 ) ) ;
#166 = EDGE_CURVE ( 'NONE', #41, #199, #1, .T. ) ;
#167 = ADVANCED_FACE ( 'NONE', ( #176 ), #46, .T. ) ;
#168 = CARTESIAN_POINT ( 'NONE',  ( -5.237222008264700000E-015, -1.544999999999999700, 1.500000000000000200 ) ) ;
#169 = SECURITY_CLASSIFICATION ( '', '', #23 ) ;
#170 = ORIENTED_EDGE ( 'NONE', *, *, #116, .T. ) ;
#171 = APPROVAL_ROLE ( '' ) ;
#172 = ORIENTED_EDGE ( 'NONE', *, *, #116, .F. ) ;
#173 = APPLICATION_PROTOCOL_DEFINITION ( 'international standard', 'config_control_design', 1994, #181 ) ;
#174 = PERSON_AND_ORGANIZATION ( #122, #141 ) ;
#175 = DIRECTION ( 'NONE',  ( 0.0000000000000000000, 0.0000000000000000000, 1.000000000000000000 ) ) ;
#176 = FACE_OUTER_BOUND ( 'NONE', #120, .T. ) ;
#177 = DIRECTION ( 'NONE',  ( -0.0000000000000000000, 0.0000000000000000000, -1.000000000000000000 ) ) ;
#178 = DIRECTION ( 'NONE',  ( 0.0000000000000000000, 0.0000000000000000000, 1.000000000000000000 ) ) ;
#179 = DIRECTION ( 'NONE',  ( 3.491481338843133000E-015, 0.0000000000000000000, -1.000000000000000000 ) ) ;
#180 = CIRCLE ( 'NONE', #87, 1.500000000000000200 ) ;
#181 = APPLICATION_CONTEXT ( 'configuration controlled 3d designs of mechanical parts and assemblies' ) ;
#182 = EDGE_CURVE ( 'NONE', #194, #73, #193, .T. ) ;
#183 = CARTESIAN_POINT ( 'NONE',  ( 0.0000000000000000000, -1.544999999999999700, 0.0000000000000000000 ) ) ;
#184 = AXIS2_PLACEMENT_3D ( 'NONE', #4, #152, #135 ) ;
#185 = PLANE ( 'NONE',  #125 ) ;
#186 = DIRECTION ( 'NONE',  ( 1.000000000000000000, 0.0000000000000000000, 3.491481338843133000E-015 ) ) ;
#187 = PRODUCT_DEFINITION_FORMATION_WITH_SPECIFIED_SOURCE ( 'ANY', '', #147, .NOT_KNOWN. ) ;
#188 = DIRECTION ( 'NONE',  ( 1.000000000000000000, 0.0000000000000000000, 0.0000000000000000000 ) ) ;
#189 = DIRECTION ( 'NONE',  ( -1.000000000000000000, 0.0000000000000000000, 0.0000000000000000000 ) ) ;
#190 = EDGE_CURVE ( 'NONE', #44, #41, #156, .T. ) ;
#191 = EDGE_LOOP ( 'NONE', ( #53, #134, #81, #17 ) ) ;
#192 =( LENGTH_UNIT ( ) NAMED_UNIT ( * ) SI_UNIT ( $, .METRE. ) );
#193 = CIRCLE ( 'NONE', #184, 1.500000000000000200 ) ;
#194 = VERTEX_POINT ( 'NONE', #111 ) ;
#195 = ORIENTED_EDGE ( 'NONE', *, *, #118, .T. ) ;
#196 = DIRECTION ( 'NONE',  ( 3.491481338843133000E-015, 0.0000000000000000000, -1.000000000000000000 ) ) ;
#197 = DIRECTION ( 'NONE',  ( 1.000000000000000000, 0.0000000000000000000, 0.0000000000000000000 ) ) ;
#198 = CARTESIAN_POINT ( 'NONE',  ( 1.544999999999999700, -1.544999999999999700, 0.0000000000000000000 ) ) ;
#199 = VERTEX_POINT ( 'NONE', #123 ) ;
#200 = ORIENTED_EDGE ( 'NONE', *, *, #96, .T. ) ;
#201 = AXIS2_PLACEMENT_3D ( 'NONE', #104, #43, #38 ) ;
#202 = APPROVAL_STATUS ( 'not_yet_approved' ) ;
#203 = AXIS2_PLACEMENT_3D ( 'NONE', #210, #186, #79 ) ;
#204 = ORIENTED_EDGE ( 'NONE', *, *, #11, .T. ) ;
#205 = CC_DESIGN_PERSON_AND_ORGANIZATION_ASSIGNMENT ( #174, #124, ( #119 ) ) ;
#206 = FACE_OUTER_BOUND ( 'NONE', #191, .T. ) ;
#207 = VECTOR ( 'NONE', #25, 39.37007874015748100 ) ;
#208 = AXIS2_PLACEMENT_3D ( 'NONE', #183, #163, #178 ) ;
#209 = DIRECTION ( 'NONE',  ( -1.000000000000000000, 0.0000000000000000000, -3.491481338843133400E-015 ) ) ;
#210 = CARTESIAN_POINT ( 'NONE',  ( -3.303079791955400600E-031, -1.545000000000000200, 9.460396523413304100E-017 ) ) ;
#211 = CARTESIAN_POINT ( 'NONE',  ( 9.460396523413304100E-017, -1.545000000000000200, 0.0000000000000000000 ) ) ;
#212 = PLANE ( 'NONE',  #16 ) ;
#213 = CARTESIAN_POINT ( 'NONE',  ( -3.303079791955400600E-031, -1.545000000000000200, 9.460396523413304100E-017 ) ) ;
ENDSEC;
END-ISO-10303-21;
