ISO-10303-21;
HEADER;
FILE_DESCRIPTION (( 'STEP AP203' ),
    '1' );
FILE_NAME ('400903.STEP',
    '2024-01-21T18:07:09',
    ( '' ),
    ( '' ),
    'SwSTEP 2.0',
    'SolidWorks 2021',
    '' );
FILE_SCHEMA (( 'CONFIG_CONTROL_DESIGN' ));
ENDSEC;

DATA;
#1 = LINE ( 'NONE', #36, #134 ) ;
#2 = APPROVAL_ROLE ( '' ) ;
#3 = ORIENTED_EDGE ( 'NONE', *, *, #66, .T. ) ;
#4 = DIRECTION ( 'NONE',  ( 0.7071067811865463515, 2.897562362236303384E-16, -0.7071067811865487940 ) ) ;
#5 =( CONVERSION_BASED_UNIT ( 'INCH', #25 ) LENGTH_UNIT ( ) NAMED_UNIT ( #154 ) );
#6 = CARTESIAN_POINT ( 'NONE',  ( 0.000000000000000000, -1.414213562373096256, -1.414213562373093369 ) ) ;
#7 = AXIS2_PLACEMENT_3D ( 'NONE', #127, #80, #143 ) ;
#8 = DIRECTION ( 'NONE',  ( -0.7071067811865463515, -2.897562362236303877E-16, 0.7071067811865487940 ) ) ;
#9 = CC_DESIGN_PERSON_AND_ORGANIZATION_ASSIGNMENT ( #128, #98, ( #29 ) ) ;
#10 =( NAMED_UNIT ( * ) PLANE_ANGLE_UNIT ( ) SI_UNIT ( $, .RADIAN. ) );
#11 = DATE_AND_TIME ( #152, #135 ) ;
#12 = EDGE_CURVE ( 'NONE', #129, #106, #75, .T. ) ;
#13 = PERSON_AND_ORGANIZATION_ROLE ( 'classification_officer' ) ;
#14 = PERSON_AND_ORGANIZATION_ROLE ( 'creator' ) ;
#15 = ORIENTED_EDGE ( 'NONE', *, *, #66, .F. ) ;
#16 = APPROVAL_ROLE ( '' ) ;
#17 = ORIENTED_EDGE ( 'NONE', *, *, #23, .F. ) ;
#18 = ORIENTED_EDGE ( 'NONE', *, *, #116, .F. ) ;
#19 = SECURITY_CLASSIFICATION ( '', '', #82 ) ;
#20 = FACE_OUTER_BOUND ( 'NONE', #180, .T. ) ;
#21 = PRODUCT_DEFINITION_SHAPE ( 'NONE', 'NONE',  #81 ) ;
#22 = ADVANCED_BREP_SHAPE_REPRESENTATION ( '400903', ( #140, #113 ), #100 ) ;
#23 = EDGE_CURVE ( 'NONE', #106, #53, #1, .T. ) ;
#24 = ORGANIZATION ( 'UNSPECIFIED', 'UNSPECIFIED', '' ) ;
#25 = LENGTH_MEASURE_WITH_UNIT ( LENGTH_MEASURE( 0.02539999999999999897 ), #57 );
#26 = ADVANCED_FACE ( 'NONE', ( #85 ), #197, .T. ) ;
#27 = CALENDAR_DATE ( 2024, 21, 1 ) ;
#28 = AXIS2_PLACEMENT_3D ( 'NONE', #55, #8, #183 ) ;
#29 = PRODUCT_DEFINITION_FORMATION_WITH_SPECIFIED_SOURCE ( 'ANY', '', #97, .NOT_KNOWN. ) ;
#30 = COORDINATED_UNIVERSAL_TIME_OFFSET ( 8, 0, .BEHIND. ) ;
#31 = CALENDAR_DATE ( 2024, 21, 1 ) ;
#32 = ORIENTED_EDGE ( 'NONE', *, *, #123, .T. ) ;
#33 = DATE_AND_TIME ( #213, #205 ) ;
#34 = EDGE_LOOP ( 'NONE', ( #160, #71, #49 ) ) ;
#35 = AXIS2_PLACEMENT_3D ( 'NONE', #77, #120, #91 ) ;
#36 = CARTESIAN_POINT ( 'NONE',  ( 1.414213562373097810, -1.414213562373091815, -5.463695987328526437E-16 ) ) ;
#37 = DIRECTION ( 'NONE',  ( 0.000000000000000000, -3.997826332191604385E-16, 1.000000000000000000 ) ) ;
#38 = CIRCLE ( 'NONE', #188, 2.000000000000000444 ) ;
#39 = PLANE ( 'NONE',  #212 ) ;
#40 = AXIS2_PLACEMENT_3D ( 'NONE', #62, #46, #195 ) ;
#41 = DIRECTION ( 'NONE',  ( 0.000000000000000000, 0.000000000000000000, 1.000000000000000000 ) ) ;
#42 = APPROVAL ( #190, 'UNSPECIFIED' ) ;
#43 = PERSON_AND_ORGANIZATION ( #56, #24 ) ;
#44 = CC_DESIGN_APPROVAL ( #52, ( #19 ) ) ;
#45 = COORDINATED_UNIVERSAL_TIME_OFFSET ( 8, 0, .BEHIND. ) ;
#46 = DIRECTION ( 'NONE',  ( 0.000000000000000000, -1.000000000000000000, -4.097771990496395814E-16 ) ) ;
#47 = DATE_TIME_ROLE ( 'classification_date' ) ;
#48 = ADVANCED_FACE ( 'NONE', ( #211 ), #131, .T. ) ;
#49 = ORIENTED_EDGE ( 'NONE', *, *, #123, .F. ) ;
#50 = ORIENTED_EDGE ( 'NONE', *, *, #59, .F. ) ;
#51 = AXIS2_PLACEMENT_3D ( 'NONE', #187, #133, #73 ) ;
#52 = APPROVAL ( #61, 'UNSPECIFIED' ) ;
#53 = VERTEX_POINT ( 'NONE', #144 ) ;
#54 = DIRECTION ( 'NONE',  ( 0.7071067811865486830, 1.332608777397201708E-16, 0.7071067811865463515 ) ) ;
#55 = CARTESIAN_POINT ( 'NONE',  ( 0.000000000000000000, -1.414213562373096256, -1.414213562373093369 ) ) ;
#56 = PERSON ( 'UNSPECIFIED', 'UNSPECIFIED', 'UNSPECIFIED', ('UNSPECIFIED'), ('UNSPECIFIED'), ('UNSPECIFIED') ) ;
#57 =( LENGTH_UNIT ( ) NAMED_UNIT ( * ) SI_UNIT ( $, .METRE. ) );
#58 = DIRECTION ( 'NONE',  ( -3.573660246758126932E-15, 1.000000000000000000, 3.983437445807752906E-15 ) ) ;
#59 = EDGE_CURVE ( 'NONE', #147, #110, #126, .T. ) ;
#60 = SHAPE_DEFINITION_REPRESENTATION ( #21, #22 ) ;
#61 = APPROVAL_STATUS ( 'not_yet_approved' ) ;
#62 = CARTESIAN_POINT ( 'NONE',  ( -1.414213562373097810, -1.414213562373091815, -5.463695987328526437E-16 ) ) ;
#63 = AXIS2_PLACEMENT_3D ( 'NONE', #101, #148, #105 ) ;
#64 = APPROVAL_PERSON_ORGANIZATION ( #156, #52, #16 ) ;
#65 = PERSON_AND_ORGANIZATION ( #56, #24 ) ;
#66 = EDGE_CURVE ( 'NONE', #114, #129, #151, .T. ) ;
#67 = ORIENTED_EDGE ( 'NONE', *, *, #12, .T. ) ;
#68 = APPROVAL_STATUS ( 'not_yet_approved' ) ;
#69 = ORIENTED_EDGE ( 'NONE', *, *, #199, .T. ) ;
#70 = DESIGN_CONTEXT ( 'detailed design', #206, 'design' ) ;
#71 = ORIENTED_EDGE ( 'NONE', *, *, #59, .T. ) ;
#72 = ORIENTED_EDGE ( 'NONE', *, *, #104, .T. ) ;
#73 = DIRECTION ( 'NONE',  ( 0.7071067811865487940, 1.365923996832131609E-16, 0.7071067811865463515 ) ) ;
#74 = DIRECTION ( 'NONE',  ( 0.000000000000000000, -4.097771990496393842E-16, 1.000000000000000000 ) ) ;
#75 = CIRCLE ( 'NONE', #192, 2.050000000000000266 ) ;
#76 = FACE_OUTER_BOUND ( 'NONE', #161, .T. ) ;
#77 = CARTESIAN_POINT ( 'NONE',  ( 0.000000000000000000, -1.414213562373096256, -1.414213562373093369 ) ) ;
#78 = CC_DESIGN_APPROVAL ( #184, ( #81 ) ) ;
#79 = DATE_TIME_ROLE ( 'creation_date' ) ;
#80 = DIRECTION ( 'NONE',  ( 0.7071067811865463515, -2.897562362236303384E-16, 0.7071067811865487940 ) ) ;
#81 = PRODUCT_DEFINITION ( 'UNKNOWN', '', #29, #70 ) ;
#82 = SECURITY_CLASSIFICATION_LEVEL ( 'unclassified' ) ;
#83 = CARTESIAN_POINT ( 'NONE',  ( 0.000000000000000000, -1.414213562373096256, -1.414213562373093369 ) ) ;
#84 = APPROVAL_DATE_TIME ( #11, #52 ) ;
#85 = FACE_OUTER_BOUND ( 'NONE', #102, .T. ) ;
#86 = ORIENTED_EDGE ( 'NONE', *, *, #116, .T. ) ;
#87 = APPROVAL_PERSON_ORGANIZATION ( #157, #42, #196 ) ;
#88 = DIRECTION ( 'NONE',  ( 1.000000000000000000, 0.000000000000000000, 0.000000000000000000 ) ) ;
#89 = CLOSED_SHELL ( 'NONE', ( #210, #48, #26, #173, #179 ) ) ;
#90 = CC_DESIGN_PERSON_AND_ORGANIZATION_ASSIGNMENT ( #95, #14, ( #29 ) ) ;
#91 = DIRECTION ( 'NONE',  ( -0.7071067811865486830, -2.731847993664262725E-16, 0.7071067811865462405 ) ) ;
#92 = VECTOR ( 'NONE', #137, 39.37007874015748854 ) ;
#93 = LINE ( 'NONE', #202, #92 ) ;
#94 = APPROVAL_DATE_TIME ( #125, #184 ) ;
#95 = PERSON_AND_ORGANIZATION ( #56, #24 ) ;
#96 = ORIENTED_EDGE ( 'NONE', *, *, #136, .T. ) ;
#97 = PRODUCT ( '400903', '400903', '', ( #209 ) ) ;
#98 = PERSON_AND_ORGANIZATION_ROLE ( 'design_supplier' ) ;
#99 = EDGE_LOOP ( 'NONE', ( #181, #96, #72, #17 ) ) ;
#100 =( GEOMETRIC_REPRESENTATION_CONTEXT ( 3 ) GLOBAL_UNCERTAINTY_ASSIGNED_CONTEXT ( ( #159 ) ) GLOBAL_UNIT_ASSIGNED_CONTEXT ( ( #5, #10, #168 ) ) REPRESENTATION_CONTEXT ( 'NONE', 'WORKASPACE' ) );
#101 = CARTESIAN_POINT ( 'NONE',  ( 0.000000000000000000, -1.414213562373096256, -1.414213562373093369 ) ) ;
#102 = EDGE_LOOP ( 'NONE', ( #18, #3, #67 ) ) ;
#103 = CC_DESIGN_SECURITY_CLASSIFICATION ( #19, ( #29 ) ) ;
#104 = EDGE_CURVE ( 'NONE', #147, #53, #38, .T. ) ;
#105 = DIRECTION ( 'NONE',  ( -0.7071067811865486830, 1.332608777397201708E-16, 0.7071067811865463515 ) ) ;
#106 = VERTEX_POINT ( 'NONE', #122 ) ;
#107 = DATE_AND_TIME ( #31, #185 ) ;
#108 = APPLICATION_PROTOCOL_DEFINITION ( 'international standard', 'config_control_design', 1994, #206 ) ;
#109 = PERSON_AND_ORGANIZATION_ROLE ( 'design_owner' ) ;
#110 = VERTEX_POINT ( 'NONE', #163 ) ;
#111 = DATE_AND_TIME ( #27, #165 ) ;
#112 = DIRECTION ( 'NONE',  ( -0.000000000000000000, 1.000000000000000000, 4.097771990496395814E-16 ) ) ;
#113 = AXIS2_PLACEMENT_3D ( 'NONE', #189, #41, #88 ) ;
#114 = VERTEX_POINT ( 'NONE', #132 ) ;
#115 = ORIENTED_EDGE ( 'NONE', *, *, #23, .T. ) ;
#116 = EDGE_CURVE ( 'NONE', #114, #106, #182, .T. ) ;
#117 = CARTESIAN_POINT ( 'NONE',  ( 0.000000000000000000, -1.414213562373096256, -1.414213562373093369 ) ) ;
#118 = CC_DESIGN_PERSON_AND_ORGANIZATION_ASSIGNMENT ( #43, #130, ( #81 ) ) ;
#119 = AXIS2_PLACEMENT_3D ( 'NONE', #83, #178, #174 ) ;
#120 = DIRECTION ( 'NONE',  ( 0.7071067811865462405, -2.897562362236303877E-16, 0.7071067811865487940 ) ) ;
#121 = CARTESIAN_POINT ( 'NONE',  ( -1.414213562373097810, -1.414213562373091815, -5.463695987328526437E-16 ) ) ;
#122 = CARTESIAN_POINT ( 'NONE',  ( 1.449568901432425116, -1.414213562373091815, 0.03535533905932657095 ) ) ;
#123 = EDGE_CURVE ( 'NONE', #53, #110, #177, .T. ) ;
#124 = VECTOR ( 'NONE', #58, 39.37007874015748143 ) ;
#125 = DATE_AND_TIME ( #172, #164 ) ;
#126 = CIRCLE ( 'NONE', #119, 2.000000000000000000 ) ;
#127 = CARTESIAN_POINT ( 'NONE',  ( 0.000000000000000000, -1.414213562373096256, -1.414213562373093369 ) ) ;
#128 = PERSON_AND_ORGANIZATION ( #56, #24 ) ;
#129 = VERTEX_POINT ( 'NONE', #167 ) ;
#130 = PERSON_AND_ORGANIZATION_ROLE ( 'creator' ) ;
#131 = PLANE ( 'NONE',  #40 ) ;
#132 = CARTESIAN_POINT ( 'NONE',  ( -2.731847993664263218E-16, 0.6357864376269035667, -1.414213562373092481 ) ) ;
#133 = DIRECTION ( 'NONE',  ( -0.7071067811865463515, -2.897562362236303384E-16, 0.7071067811865487940 ) ) ;
#134 = VECTOR ( 'NONE', #176, 39.37007874015748854 ) ;
#135 = LOCAL_TIME ( 10, 7, 9.000000000000000000, #158 ) ;
#136 = EDGE_CURVE ( 'NONE', #129, #147, #93, .T. ) ;
#137 = DIRECTION ( 'NONE',  ( 0.7071067811865486830, -5.583716950154564375E-15, -0.7071067811865462405 ) ) ;
#138 = DIRECTION ( 'NONE',  ( -0.7071067811865463515, 2.897562362236303877E-16, -0.7071067811865487940 ) ) ;
#139 = SPHERICAL_SURFACE ( 'NONE', #35, 2.000000000000000000 ) ;
#140 = MANIFOLD_SOLID_BREP ( 'Revolve1', #89 ) ;
#141 = APPROVAL_PERSON_ORGANIZATION ( #171, #184, #2 ) ;
#142 = CC_DESIGN_DATE_AND_TIME_ASSIGNMENT ( #107, #79, ( #81 ) ) ;
#143 = DIRECTION ( 'NONE',  ( -0.7071067811865487940, -2.665217554794403417E-16, 0.7071067811865463515 ) ) ;
#144 = CARTESIAN_POINT ( 'NONE',  ( 1.414213562373097810, -1.414213562373091815, -5.463695987328526437E-16 ) ) ;
#145 = COORDINATED_UNIVERSAL_TIME_OFFSET ( 8, 0, .BEHIND. ) ;
#146 = CARTESIAN_POINT ( 'NONE',  ( 0.000000000000000000, -1.414213562373091371, -1.414213562373093369 ) ) ;
#147 = VERTEX_POINT ( 'NONE', #121 ) ;
#148 = DIRECTION ( 'NONE',  ( 0.7071067811865463515, -2.897562362236303877E-16, 0.7071067811865487940 ) ) ;
#149 = PLANE ( 'NONE',  #28 ) ;
#150 = APPLICATION_PROTOCOL_DEFINITION ( 'international standard', 'config_control_design', 1994, #191 ) ;
#151 = CIRCLE ( 'NONE', #63, 2.049999999999999822 ) ;
#152 = CALENDAR_DATE ( 2024, 21, 1 ) ;
#153 = CC_DESIGN_PERSON_AND_ORGANIZATION_ASSIGNMENT ( #65, #109, ( #97 ) ) ;
#154 = DIMENSIONAL_EXPONENTS ( 1.000000000000000000, 0.000000000000000000, 0.000000000000000000, 0.000000000000000000, 0.000000000000000000, 0.000000000000000000, 0.000000000000000000 ) ;
#155 = AXIS2_PLACEMENT_3D ( 'NONE', #6, #4, #54 ) ;
#156 = PERSON_AND_ORGANIZATION ( #56, #24 ) ;
#157 = PERSON_AND_ORGANIZATION ( #56, #24 ) ;
#158 = COORDINATED_UNIVERSAL_TIME_OFFSET ( 8, 0, .BEHIND. ) ;
#159 = UNCERTAINTY_MEASURE_WITH_UNIT (LENGTH_MEASURE( 1.000000000000000082E-05 ), #5, 'distance_accuracy_value', 'NONE');
#160 = ORIENTED_EDGE ( 'NONE', *, *, #104, .F. ) ;
#161 = EDGE_LOOP ( 'NONE', ( #32, #69, #86, #115 ) ) ;
#162 = DIRECTION ( 'NONE',  ( -0.000000000000000000, 1.000000000000000000, 4.097771990496395814E-16 ) ) ;
#163 = CARTESIAN_POINT ( 'NONE',  ( 0.000000000000000000, 0.5857864376269035223, -1.414213562373092703 ) ) ;
#164 = LOCAL_TIME ( 10, 7, 9.000000000000000000, #145 ) ;
#165 = LOCAL_TIME ( 10, 7, 9.000000000000000000, #45 ) ;
#166 = CARTESIAN_POINT ( 'NONE',  ( 0.000000000000000000, 0.5857864376269035223, -1.414213562373092703 ) ) ;
#167 = CARTESIAN_POINT ( 'NONE',  ( -1.449568901432425116, -1.414213562373091815, 0.03535533905932664034 ) ) ;
#168 =( NAMED_UNIT ( * ) SI_UNIT ( $, .STERADIAN. ) SOLID_ANGLE_UNIT ( ) );
#169 = CC_DESIGN_PERSON_AND_ORGANIZATION_ASSIGNMENT ( #170, #13, ( #19 ) ) ;
#170 = PERSON_AND_ORGANIZATION ( #56, #24 ) ;
#171 = PERSON_AND_ORGANIZATION ( #56, #24 ) ;
#172 = CALENDAR_DATE ( 2024, 21, 1 ) ;
#173 = ADVANCED_FACE ( 'NONE', ( #20 ), #39, .T. ) ;
#174 = DIRECTION ( 'NONE',  ( -0.7071067811865487940, 1.365923996832131609E-16, 0.7071067811865463515 ) ) ;
#175 = APPROVAL_DATE_TIME ( #33, #42 ) ;
#176 = DIRECTION ( 'NONE',  ( -0.7071067811865486830, -5.583716950154564375E-15, -0.7071067811865462405 ) ) ;
#177 = CIRCLE ( 'NONE', #51, 2.000000000000000000 ) ;
#178 = DIRECTION ( 'NONE',  ( -0.7071067811865463515, 2.897562362236303877E-16, -0.7071067811865487940 ) ) ;
#179 = ADVANCED_FACE ( 'NONE', ( #76 ), #149, .F. ) ;
#180 = EDGE_LOOP ( 'NONE', ( #50, #201, #15, #200 ) ) ;
#181 = ORIENTED_EDGE ( 'NONE', *, *, #12, .F. ) ;
#182 = CIRCLE ( 'NONE', #155, 2.049999999999999822 ) ;
#183 = DIRECTION ( 'NONE',  ( 0.7071067811865486830, 1.200209628260102044E-16, 0.7071067811865462405 ) ) ;
#184 = APPROVAL ( #68, 'UNSPECIFIED' ) ;
#185 = LOCAL_TIME ( 10, 7, 9.000000000000000000, #30 ) ;
#186 = DIRECTION ( 'NONE',  ( -0.7071067811865486830, 1.200209628260102537E-16, 0.7071067811865462405 ) ) ;
#187 = CARTESIAN_POINT ( 'NONE',  ( 0.000000000000000000, -1.414213562373096256, -1.414213562373093369 ) ) ;
#188 = AXIS2_PLACEMENT_3D ( 'NONE', #204, #162, #74 ) ;
#189 = CARTESIAN_POINT ( 'NONE',  ( 0.000000000000000000, 0.000000000000000000, 0.000000000000000000 ) ) ;
#190 = APPROVAL_STATUS ( 'not_yet_approved' ) ;
#191 = APPLICATION_CONTEXT ( 'configuration controlled 3d designs of mechanical parts and assemblies' ) ;
#192 = AXIS2_PLACEMENT_3D ( 'NONE', #146, #112, #37 ) ;
#193 = CC_DESIGN_APPROVAL ( #42, ( #29 ) ) ;
#194 = PRODUCT_RELATED_PRODUCT_CATEGORY ( 'detail', '', ( #97 ) ) ;
#195 = DIRECTION ( 'NONE',  ( 0.000000000000000000, 4.097771990496395814E-16, -1.000000000000000000 ) ) ;
#196 = APPROVAL_ROLE ( '' ) ;
#197 = SPHERICAL_SURFACE ( 'NONE', #7, 2.049999999999999822 ) ;
#198 = COORDINATED_UNIVERSAL_TIME_OFFSET ( 8, 0, .BEHIND. ) ;
#199 = EDGE_CURVE ( 'NONE', #110, #114, #208, .T. ) ;
#200 = ORIENTED_EDGE ( 'NONE', *, *, #199, .F. ) ;
#201 = ORIENTED_EDGE ( 'NONE', *, *, #136, .F. ) ;
#202 = CARTESIAN_POINT ( 'NONE',  ( -1.414213562373097810, -1.414213562373091815, -5.463695987328526437E-16 ) ) ;
#203 = CC_DESIGN_DATE_AND_TIME_ASSIGNMENT ( #111, #47, ( #19 ) ) ;
#204 = CARTESIAN_POINT ( 'NONE',  ( 0.000000000000000000, -1.414213562373091371, -1.414213562373093369 ) ) ;
#205 = LOCAL_TIME ( 10, 7, 9.000000000000000000, #198 ) ;
#206 = APPLICATION_CONTEXT ( 'configuration controlled 3d designs of mechanical parts and assemblies' ) ;
#207 = FACE_OUTER_BOUND ( 'NONE', #34, .T. ) ;
#208 = LINE ( 'NONE', #166, #124 ) ;
#209 = MECHANICAL_CONTEXT ( 'NONE', #191, 'mechanical' ) ;
#210 = ADVANCED_FACE ( 'NONE', ( #207 ), #139, .F. ) ;
#211 = FACE_OUTER_BOUND ( 'NONE', #99, .T. ) ;
#212 = AXIS2_PLACEMENT_3D ( 'NONE', #117, #138, #186 ) ;
#213 = CALENDAR_DATE ( 2024, 21, 1 ) ;
ENDSEC;
END-ISO-10303-21;
