ISO-10303-21;
HEADER;
FILE_DESCRIPTION (( 'STEP AP203' ),
    '1' );
FILE_NAME ('400505.STEP',
    '2024-01-21T18:11:17',
    ( '' ),
    ( '' ),
    'SwSTEP 2.0',
    'SolidWorks 2021',
    '' );
FILE_SCHEMA (( 'CONFIG_CONTROL_DESIGN' ));
ENDSEC;

DATA;
#1 = APPROVAL_STATUS ( 'not_yet_approved' ) ;
#2 = APPROVAL_DATE_TIME ( #83, #111 ) ;
#3 = CC_DESIGN_PERSON_AND_ORGANIZATION_ASSIGNMENT ( #113, #129, ( #100 ) ) ;
#4 = ORIENTED_EDGE ( 'NONE', *, *, #203, .T. ) ;
#5 = VERTEX_POINT ( 'NONE', #120 ) ;
#6 = ORIENTED_EDGE ( 'NONE', *, *, #160, .F. ) ;
#7 = DIRECTION ( 'NONE',  ( 0.7071067811865463515, -2.897562362236303877E-16, 0.7071067811865487940 ) ) ;
#8 = LOCAL_TIME ( 10, 11, 17.00000000000000000, #78 ) ;
#9 = DIRECTION ( 'NONE',  ( 0.7071067811865463515, 2.897562362236303384E-16, -0.7071067811865487940 ) ) ;
#10 = SPHERICAL_SURFACE ( 'NONE', #173, 2.089999999999999858 ) ;
#11 = DIRECTION ( 'NONE',  ( -0.7071067811865463515, 2.897562362236303877E-16, -0.7071067811865487940 ) ) ;
#12 = DIRECTION ( 'NONE',  ( 0.000000000000000000, 0.000000000000000000, 1.000000000000000000 ) ) ;
#13 = PERSON_AND_ORGANIZATION ( #122, #50 ) ;
#14 = CC_DESIGN_APPROVAL ( #101, ( #105 ) ) ;
#15 = CALENDAR_DATE ( 2024, 21, 1 ) ;
#16 = CARTESIAN_POINT ( 'NONE',  ( 0.000000000000000000, 0.000000000000000000, 0.000000000000000000 ) ) ;
#17 = ORIENTED_EDGE ( 'NONE', *, *, #203, .F. ) ;
#18 = EDGE_CURVE ( 'NONE', #34, #174, #125, .T. ) ;
#19 = LOCAL_TIME ( 10, 11, 17.00000000000000000, #165 ) ;
#20 = APPLICATION_CONTEXT ( 'configuration controlled 3d designs of mechanical parts and assemblies' ) ;
#21 =( GEOMETRIC_REPRESENTATION_CONTEXT ( 3 ) GLOBAL_UNCERTAINTY_ASSIGNED_CONTEXT ( ( #95 ) ) GLOBAL_UNIT_ASSIGNED_CONTEXT ( ( #107, #64, #130 ) ) REPRESENTATION_CONTEXT ( 'NONE', 'WORKASPACE' ) );
#22 = ORIENTED_EDGE ( 'NONE', *, *, #18, .T. ) ;
#23 = ORIENTED_EDGE ( 'NONE', *, *, #63, .T. ) ;
#24 = PRODUCT_RELATED_PRODUCT_CATEGORY ( 'detail', '', ( #65 ) ) ;
#25 = DIRECTION ( 'NONE',  ( -0.7071067811865487940, 1.307104303188642876E-16, 0.7071067811865463515 ) ) ;
#26 = CC_DESIGN_PERSON_AND_ORGANIZATION_ASSIGNMENT ( #211, #212, ( #65 ) ) ;
#27 = DIRECTION ( 'NONE',  ( 0.7071067811865486830, 1.200209628260102044E-16, 0.7071067811865462405 ) ) ;
#28 = CIRCLE ( 'NONE', #209, 2.090000000000000302 ) ;
#29 = AXIS2_PLACEMENT_3D ( 'NONE', #161, #181, #27 ) ;
#30 = DATE_AND_TIME ( #47, #73 ) ;
#31 = MECHANICAL_CONTEXT ( 'NONE', #158, 'mechanical' ) ;
#32 = APPROVAL_ROLE ( '' ) ;
#33 = COORDINATED_UNIVERSAL_TIME_OFFSET ( 8, 0, .BEHIND. ) ;
#34 = VERTEX_POINT ( 'NONE', #186 ) ;
#35 = PRODUCT_DEFINITION ( 'UNKNOWN', '', #105, #49 ) ;
#36 = ORIENTED_EDGE ( 'NONE', *, *, #169, .F. ) ;
#37 = EDGE_LOOP ( 'NONE', ( #118, #6, #56, #17 ) ) ;
#38 = EDGE_LOOP ( 'NONE', ( #85, #138, #154 ) ) ;
#39 = CC_DESIGN_PERSON_AND_ORGANIZATION_ASSIGNMENT ( #167, #131, ( #105 ) ) ;
#40 = DIRECTION ( 'NONE',  ( -0.7071067811865487940, 1.365923996832131609E-16, 0.7071067811865463515 ) ) ;
#41 = CARTESIAN_POINT ( 'NONE',  ( 0.000000000000000000, 0.5857864376269035223, -1.414213562373092703 ) ) ;
#42 = CLOSED_SHELL ( 'NONE', ( #93, #175, #202, #133, #153 ) ) ;
#43 = DIRECTION ( 'NONE',  ( -1.856586254321782698E-15, 1.000000000000000000, 2.266363453371415771E-15 ) ) ;
#44 = LENGTH_MEASURE_WITH_UNIT ( LENGTH_MEASURE( 0.02539999999999999897 ), #59 );
#45 = DIRECTION ( 'NONE',  ( -0.7071067811865486830, -6.190794282079936480E-15, -0.7071067811865462405 ) ) ;
#46 = CC_DESIGN_DATE_AND_TIME_ASSIGNMENT ( #67, #170, ( #100 ) ) ;
#47 = CALENDAR_DATE ( 2024, 21, 1 ) ;
#48 = PERSON_AND_ORGANIZATION ( #122, #50 ) ;
#49 = DESIGN_CONTEXT ( 'detailed design', #20, 'design' ) ;
#50 = ORGANIZATION ( 'UNSPECIFIED', 'UNSPECIFIED', '' ) ;
#51 = APPROVAL_PERSON_ORGANIZATION ( #152, #101, #32 ) ;
#52 = SECURITY_CLASSIFICATION_LEVEL ( 'unclassified' ) ;
#53 = EDGE_LOOP ( 'NONE', ( #156, #157, #155, #68 ) ) ;
#54 = EDGE_LOOP ( 'NONE', ( #22, #4, #176, #135 ) ) ;
#55 = EDGE_LOOP ( 'NONE', ( #36, #109, #23 ) ) ;
#56 = ORIENTED_EDGE ( 'NONE', *, *, #194, .F. ) ;
#57 = CARTESIAN_POINT ( 'NONE',  ( 1.414213562373097810, -1.414213562373091815, -5.463695987328526437E-16 ) ) ;
#58 = DIRECTION ( 'NONE',  ( 0.7071067811865463515, -2.897562362236303877E-16, 0.7071067811865487940 ) ) ;
#59 =( LENGTH_UNIT ( ) NAMED_UNIT ( * ) SI_UNIT ( $, .METRE. ) );
#60 = DIRECTION ( 'NONE',  ( 0.000000000000000000, -3.921312909565927395E-16, 1.000000000000000000 ) ) ;
#61 = CARTESIAN_POINT ( 'NONE',  ( -1.414213562373097810, -1.414213562373091815, -5.463695987328526437E-16 ) ) ;
#62 = APPROVAL_STATUS ( 'not_yet_approved' ) ;
#63 = EDGE_CURVE ( 'NONE', #102, #5, #28, .T. ) ;
#64 =( NAMED_UNIT ( * ) PLANE_ANGLE_UNIT ( ) SI_UNIT ( $, .RADIAN. ) );
#65 = PRODUCT ( '400505', '400505', '', ( #31 ) ) ;
#66 = APPROVAL_ROLE ( '' ) ;
#67 = DATE_AND_TIME ( #168, #8 ) ;
#68 = ORIENTED_EDGE ( 'NONE', *, *, #114, .F. ) ;
#69 = VECTOR ( 'NONE', #45, 39.37007874015748854 ) ;
#70 = VERTEX_POINT ( 'NONE', #143 ) ;
#71 = FACE_OUTER_BOUND ( 'NONE', #53, .T. ) ;
#72 = AXIS2_PLACEMENT_3D ( 'NONE', #193, #208, #91 ) ;
#73 = LOCAL_TIME ( 10, 11, 17.00000000000000000, #94 ) ;
#74 = PLANE ( 'NONE',  #72 ) ;
#75 = LINE ( 'NONE', #57, #69 ) ;
#76 = APPROVAL_PERSON_ORGANIZATION ( #13, #166, #66 ) ;
#77 = CARTESIAN_POINT ( 'NONE',  ( 0.000000000000000000, -1.414213562373096256, -1.414213562373093369 ) ) ;
#78 = COORDINATED_UNIVERSAL_TIME_OFFSET ( 8, 0, .BEHIND. ) ;
#79 = CC_DESIGN_DATE_AND_TIME_ASSIGNMENT ( #30, #96, ( #35 ) ) ;
#80 = DATE_AND_TIME ( #98, #19 ) ;
#81 = CC_DESIGN_APPROVAL ( #111, ( #100 ) ) ;
#82 = APPLICATION_PROTOCOL_DEFINITION ( 'international standard', 'config_control_design', 1994, #158 ) ;
#83 = DATE_AND_TIME ( #15, #117 ) ;
#84 = DIMENSIONAL_EXPONENTS ( 1.000000000000000000, 0.000000000000000000, 0.000000000000000000, 0.000000000000000000, 0.000000000000000000, 0.000000000000000000, 0.000000000000000000 ) ;
#85 = ORIENTED_EDGE ( 'NONE', *, *, #150, .F. ) ;
#86 = VECTOR ( 'NONE', #190, 39.37007874015748854 ) ;
#87 = FACE_OUTER_BOUND ( 'NONE', #38, .T. ) ;
#88 = PRODUCT_DEFINITION_SHAPE ( 'NONE', 'NONE',  #35 ) ;
#89 = CARTESIAN_POINT ( 'NONE',  ( 0.000000000000000000, -1.414213562373090705, -1.414213562373093369 ) ) ;
#90 = DIRECTION ( 'NONE',  ( 0.7071067811865462405, -2.897562362236303877E-16, 0.7071067811865487940 ) ) ;
#91 = DIRECTION ( 'NONE',  ( 0.000000000000000000, 4.097771990496395814E-16, -1.000000000000000000 ) ) ;
#92 = CARTESIAN_POINT ( 'NONE',  ( 0.000000000000000000, -1.414213562373096256, -1.414213562373093369 ) ) ;
#93 = ADVANCED_FACE ( 'NONE', ( #87 ), #182, .F. ) ;
#94 = COORDINATED_UNIVERSAL_TIME_OFFSET ( 8, 0, .BEHIND. ) ;
#95 = UNCERTAINTY_MEASURE_WITH_UNIT (LENGTH_MEASURE( 1.000000000000000082E-05 ), #107, 'distance_accuracy_value', 'NONE');
#96 = DATE_TIME_ROLE ( 'creation_date' ) ;
#97 = PERSON_AND_ORGANIZATION_ROLE ( 'creator' ) ;
#98 = CALENDAR_DATE ( 2024, 21, 1 ) ;
#99 = AXIS2_PLACEMENT_3D ( 'NONE', #92, #7, #25 ) ;
#100 = SECURITY_CLASSIFICATION ( '', '', #52 ) ;
#101 = APPROVAL ( #62, 'UNSPECIFIED' ) ;
#102 = VERTEX_POINT ( 'NONE', #106 ) ;
#103 = CARTESIAN_POINT ( 'NONE',  ( 0.000000000000000000, -1.414213562373096256, -1.414213562373093369 ) ) ;
#104 = CARTESIAN_POINT ( 'NONE',  ( 0.000000000000000000, 0.5857864376269035223, -1.414213562373092703 ) ) ;
#105 = PRODUCT_DEFINITION_FORMATION_WITH_SPECIFIED_SOURCE ( 'ANY', '', #65, .NOT_KNOWN. ) ;
#106 = CARTESIAN_POINT ( 'NONE',  ( -1.477853172679887139, -1.414213562373091371, 0.06363961030678827457 ) ) ;
#107 =( CONVERSION_BASED_UNIT ( 'INCH', #44 ) LENGTH_UNIT ( ) NAMED_UNIT ( #84 ) );
#108 = DIRECTION ( 'NONE',  ( -0.7071067811865463515, 2.897562362236303877E-16, -0.7071067811865487940 ) ) ;
#109 = ORIENTED_EDGE ( 'NONE', *, *, #194, .T. ) ;
#110 = APPROVAL_ROLE ( '' ) ;
#111 = APPROVAL ( #132, 'UNSPECIFIED' ) ;
#112 = CIRCLE ( 'NONE', #99, 2.089999999999999858 ) ;
#113 = PERSON_AND_ORGANIZATION ( #122, #50 ) ;
#114 = EDGE_CURVE ( 'NONE', #5, #34, #75, .T. ) ;
#115 = DIRECTION ( 'NONE',  ( 0.7071067811865487940, 1.365923996832131609E-16, 0.7071067811865463515 ) ) ;
#116 = CIRCLE ( 'NONE', #136, 2.000000000000000444 ) ;
#117 = LOCAL_TIME ( 10, 11, 17.00000000000000000, #147 ) ;
#118 = ORIENTED_EDGE ( 'NONE', *, *, #140, .F. ) ;
#119 = CIRCLE ( 'NONE', #171, 2.089999999999999858 ) ;
#120 = CARTESIAN_POINT ( 'NONE',  ( 1.477853172679886917, -1.414213562373091371, 0.06363961030678848274 ) ) ;
#121 = DIRECTION ( 'NONE',  ( -0.7071067811865486830, -2.731847993664262725E-16, 0.7071067811865462405 ) ) ;
#122 = PERSON ( 'UNSPECIFIED', 'UNSPECIFIED', 'UNSPECIFIED', ('UNSPECIFIED'), ('UNSPECIFIED'), ('UNSPECIFIED') ) ;
#123 = DIRECTION ( 'NONE',  ( -0.000000000000000000, 1.000000000000000000, 4.097771990496395814E-16 ) ) ;
#124 = DIRECTION ( 'NONE',  ( -0.7071067811865486830, -2.614208606377285259E-16, 0.7071067811865462405 ) ) ;
#125 = CIRCLE ( 'NONE', #187, 2.000000000000000000 ) ;
#126 = DIRECTION ( 'NONE',  ( -0.7071067811865486830, 1.200209628260102537E-16, 0.7071067811865462405 ) ) ;
#127 = ADVANCED_BREP_SHAPE_REPRESENTATION ( '400505', ( #137, #145 ), #21 ) ;
#128 = PLANE ( 'NONE',  #196 ) ;
#129 = PERSON_AND_ORGANIZATION_ROLE ( 'classification_officer' ) ;
#130 =( NAMED_UNIT ( * ) SI_UNIT ( $, .STERADIAN. ) SOLID_ANGLE_UNIT ( ) );
#131 = PERSON_AND_ORGANIZATION_ROLE ( 'creator' ) ;
#132 = APPROVAL_STATUS ( 'not_yet_approved' ) ;
#133 = ADVANCED_FACE ( 'NONE', ( #162 ), #128, .T. ) ;
#134 = CARTESIAN_POINT ( 'NONE',  ( 0.000000000000000000, -1.414213562373096256, -1.414213562373093369 ) ) ;
#135 = ORIENTED_EDGE ( 'NONE', *, *, #114, .T. ) ;
#136 = AXIS2_PLACEMENT_3D ( 'NONE', #146, #144, #192 ) ;
#137 = MANIFOLD_SOLID_BREP ( 'Revolve1', #42 ) ;
#138 = ORIENTED_EDGE ( 'NONE', *, *, #140, .T. ) ;
#139 = FACE_OUTER_BOUND ( 'NONE', #55, .T. ) ;
#140 = EDGE_CURVE ( 'NONE', #70, #174, #205, .T. ) ;
#141 = CC_DESIGN_PERSON_AND_ORGANIZATION_ASSIGNMENT ( #183, #97, ( #35 ) ) ;
#142 = CARTESIAN_POINT ( 'NONE',  ( 0.000000000000000000, -1.414213562373096256, -1.414213562373093369 ) ) ;
#143 = CARTESIAN_POINT ( 'NONE',  ( -1.414213562373097810, -1.414213562373091815, -5.463695987328526437E-16 ) ) ;
#144 = DIRECTION ( 'NONE',  ( -0.000000000000000000, 1.000000000000000000, 4.097771990496395814E-16 ) ) ;
#145 = AXIS2_PLACEMENT_3D ( 'NONE', #16, #12, #185 ) ;
#146 = CARTESIAN_POINT ( 'NONE',  ( 0.000000000000000000, -1.414213562373091371, -1.414213562373093369 ) ) ;
#147 = COORDINATED_UNIVERSAL_TIME_OFFSET ( 8, 0, .BEHIND. ) ;
#148 = PERSON_AND_ORGANIZATION ( #122, #50 ) ;
#149 = APPROVAL_PERSON_ORGANIZATION ( #48, #111, #110 ) ;
#150 = EDGE_CURVE ( 'NONE', #70, #34, #116, .T. ) ;
#151 = APPLICATION_PROTOCOL_DEFINITION ( 'international standard', 'config_control_design', 1994, #20 ) ;
#152 = PERSON_AND_ORGANIZATION ( #122, #50 ) ;
#153 = ADVANCED_FACE ( 'NONE', ( #206 ), #210, .F. ) ;
#154 = ORIENTED_EDGE ( 'NONE', *, *, #18, .F. ) ;
#155 = ORIENTED_EDGE ( 'NONE', *, *, #150, .T. ) ;
#156 = ORIENTED_EDGE ( 'NONE', *, *, #63, .F. ) ;
#157 = ORIENTED_EDGE ( 'NONE', *, *, #160, .T. ) ;
#158 = APPLICATION_CONTEXT ( 'configuration controlled 3d designs of mechanical parts and assemblies' ) ;
#159 = DIRECTION ( 'NONE',  ( 0.7071067811865487940, 1.307104303188642876E-16, 0.7071067811865463515 ) ) ;
#160 = EDGE_CURVE ( 'NONE', #102, #70, #180, .T. ) ;
#161 = CARTESIAN_POINT ( 'NONE',  ( 0.000000000000000000, -1.414213562373096256, -1.414213562373093369 ) ) ;
#162 = FACE_OUTER_BOUND ( 'NONE', #37, .T. ) ;
#163 = AXIS2_PLACEMENT_3D ( 'NONE', #77, #108, #40 ) ;
#164 = APPROVAL_DATE_TIME ( #80, #101 ) ;
#165 = COORDINATED_UNIVERSAL_TIME_OFFSET ( 8, 0, .BEHIND. ) ;
#166 = APPROVAL ( #1, 'UNSPECIFIED' ) ;
#167 = PERSON_AND_ORGANIZATION ( #122, #50 ) ;
#168 = CALENDAR_DATE ( 2024, 21, 1 ) ;
#169 = EDGE_CURVE ( 'NONE', #204, #5, #119, .T. ) ;
#170 = DATE_TIME_ROLE ( 'classification_date' ) ;
#171 = AXIS2_PLACEMENT_3D ( 'NONE', #142, #9, #159 ) ;
#172 = CC_DESIGN_PERSON_AND_ORGANIZATION_ASSIGNMENT ( #148, #197, ( #105 ) ) ;
#173 = AXIS2_PLACEMENT_3D ( 'NONE', #177, #58, #124 ) ;
#174 = VERTEX_POINT ( 'NONE', #41 ) ;
#175 = ADVANCED_FACE ( 'NONE', ( #71 ), #74, .T. ) ;
#176 = ORIENTED_EDGE ( 'NONE', *, *, #169, .T. ) ;
#177 = CARTESIAN_POINT ( 'NONE',  ( 0.000000000000000000, -1.414213562373096256, -1.414213562373093369 ) ) ;
#178 = AXIS2_PLACEMENT_3D ( 'NONE', #189, #90, #121 ) ;
#179 = CARTESIAN_POINT ( 'NONE',  ( -2.731847993664263218E-16, 0.6757864376269036022, -1.414213562373092481 ) ) ;
#180 = LINE ( 'NONE', #61, #86 ) ;
#181 = DIRECTION ( 'NONE',  ( -0.7071067811865463515, -2.897562362236303877E-16, 0.7071067811865487940 ) ) ;
#182 = SPHERICAL_SURFACE ( 'NONE', #178, 2.000000000000000000 ) ;
#183 = PERSON_AND_ORGANIZATION ( #122, #50 ) ;
#184 = APPROVAL_DATE_TIME ( #195, #166 ) ;
#185 = DIRECTION ( 'NONE',  ( 1.000000000000000000, 0.000000000000000000, 0.000000000000000000 ) ) ;
#186 = CARTESIAN_POINT ( 'NONE',  ( 1.414213562373097810, -1.414213562373091815, -5.463695987328526437E-16 ) ) ;
#187 = AXIS2_PLACEMENT_3D ( 'NONE', #134, #201, #115 ) ;
#188 = CC_DESIGN_SECURITY_CLASSIFICATION ( #100, ( #105 ) ) ;
#189 = CARTESIAN_POINT ( 'NONE',  ( 0.000000000000000000, -1.414213562373096256, -1.414213562373093369 ) ) ;
#190 = DIRECTION ( 'NONE',  ( 0.7071067811865486830, -6.190794282079936480E-15, -0.7071067811865462405 ) ) ;
#191 = VECTOR ( 'NONE', #43, 39.37007874015748143 ) ;
#192 = DIRECTION ( 'NONE',  ( 0.000000000000000000, -4.097771990496393842E-16, 1.000000000000000000 ) ) ;
#193 = CARTESIAN_POINT ( 'NONE',  ( -1.414213562373097810, -1.414213562373091593, -5.463695987328525451E-16 ) ) ;
#194 = EDGE_CURVE ( 'NONE', #204, #102, #112, .T. ) ;
#195 = DATE_AND_TIME ( #200, #199 ) ;
#196 = AXIS2_PLACEMENT_3D ( 'NONE', #103, #11, #126 ) ;
#197 = PERSON_AND_ORGANIZATION_ROLE ( 'design_supplier' ) ;
#198 = SHAPE_DEFINITION_REPRESENTATION ( #88, #127 ) ;
#199 = LOCAL_TIME ( 10, 11, 17.00000000000000000, #33 ) ;
#200 = CALENDAR_DATE ( 2024, 21, 1 ) ;
#201 = DIRECTION ( 'NONE',  ( -0.7071067811865463515, -2.897562362236303384E-16, 0.7071067811865487940 ) ) ;
#202 = ADVANCED_FACE ( 'NONE', ( #139 ), #10, .T. ) ;
#203 = EDGE_CURVE ( 'NONE', #174, #204, #207, .T. ) ;
#204 = VERTEX_POINT ( 'NONE', #179 ) ;
#205 = CIRCLE ( 'NONE', #163, 2.000000000000000000 ) ;
#206 = FACE_OUTER_BOUND ( 'NONE', #54, .T. ) ;
#207 = LINE ( 'NONE', #104, #191 ) ;
#208 = DIRECTION ( 'NONE',  ( 0.000000000000000000, -1.000000000000000000, -4.097771990496395814E-16 ) ) ;
#209 = AXIS2_PLACEMENT_3D ( 'NONE', #89, #123, #60 ) ;
#210 = PLANE ( 'NONE',  #29 ) ;
#211 = PERSON_AND_ORGANIZATION ( #122, #50 ) ;
#212 = PERSON_AND_ORGANIZATION_ROLE ( 'design_owner' ) ;
#213 = CC_DESIGN_APPROVAL ( #166, ( #35 ) ) ;
ENDSEC;
END-ISO-10303-21;
