ISO-10303-21;
HEADER;
FILE_DESCRIPTION (( 'STEP AP214' ),
    '1' );
FILE_NAME ('350507.STEP',
    '2017-03-06T17:51:31',
    ( 'temp' ),
    ( '' ),
    'SwSTEP 2.0',
    'SolidWorks 2016',
    '' );
FILE_SCHEMA (( 'AUTOMOTIVE_DESIGN' ));
ENDSEC;

DATA;
#1 = LINE ( 'NONE', #173, #140 ) ;
#2 = LENGTH_MEASURE_WITH_UNIT ( LENGTH_MEASURE( 0.02539999999999999900 ), #153 );
#3 =( NAMED_UNIT ( * ) PLANE_ANGLE_UNIT ( ) SI_UNIT ( $, .RADIAN. ) );
#4 = CARTESIAN_POINT ( 'NONE',  ( -5.237222008264700000E-015, -1.605000000000000000, 1.500000000000000200 ) ) ;
#5 = PRODUCT_DEFINITION_CONTEXT ( 'detailed design', #63, 'design' ) ;
#6 = PLANE ( 'NONE',  #71 ) ;
#7 = MECHANICAL_DESIGN_GEOMETRIC_PRESENTATION_REPRESENTATION (  '', ( #127 ), #184 ) ;
#8 = DIRECTION ( 'NONE',  ( 1.000000000000000000, 0.0000000000000000000, 3.491481338843133000E-015 ) ) ;
#9 = ORIENTED_EDGE ( 'NONE', *, *, #129, .F. ) ;
#10 = CARTESIAN_POINT ( 'NONE',  ( -3.431354735332310200E-031, -1.605000000000000200, 9.827790563157511800E-017 ) ) ;
#11 = ORIENTED_EDGE ( 'NONE', *, *, #108, .F. ) ;
#12 = ORIENTED_EDGE ( 'NONE', *, *, #151, .T. ) ;
#13 =( GEOMETRIC_REPRESENTATION_CONTEXT ( 3 ) GLOBAL_UNCERTAINTY_ASSIGNED_CONTEXT ( ( #104 ) ) GLOBAL_UNIT_ASSIGNED_CONTEXT ( ( #124, #144, #80 ) ) REPRESENTATION_CONTEXT ( 'NONE', 'WORKASPACE' ) );
#14 = EDGE_CURVE ( 'NONE', #45, #70, #1, .T. ) ;
#15 = EDGE_LOOP ( 'NONE', ( #123, #142, #25, #54 ) ) ;
#16 = DIRECTION ( 'NONE',  ( 1.000000000000000000, 0.0000000000000000000, 0.0000000000000000000 ) ) ;
#17 = SPHERICAL_SURFACE ( 'NONE', #79, 1.605000000000000200 ) ;
#18 = FACE_OUTER_BOUND ( 'NONE', #39, .T. ) ;
#19 = CARTESIAN_POINT ( 'NONE',  ( -5.237222008264700000E-015, -1.605000000000000000, 1.500000000000000200 ) ) ;
#20 = DIMENSIONAL_EXPONENTS ( 1.000000000000000000, 0.0000000000000000000, 0.0000000000000000000, 0.0000000000000000000, 0.0000000000000000000, 0.0000000000000000000, 0.0000000000000000000 ) ;
#21 = DIRECTION ( 'NONE',  ( 0.0000000000000000000, 0.0000000000000000000, 1.000000000000000000 ) ) ;
#22 = CIRCLE ( 'NONE', #141, 1.500000000000000200 ) ;
#23 = DIRECTION ( 'NONE',  ( 0.0000000000000000000, 0.0000000000000000000, 1.000000000000000000 ) ) ;
#24 = AXIS2_PLACEMENT_3D ( 'NONE', #109, #96, #16 ) ;
#25 = ORIENTED_EDGE ( 'NONE', *, *, #26, .F. ) ;
#26 = EDGE_CURVE ( 'NONE', #122, #70, #155, .T. ) ;
#27 = SHAPE_DEFINITION_REPRESENTATION ( #35, #95 ) ;
#28 = UNCERTAINTY_MEASURE_WITH_UNIT (LENGTH_MEASURE( 1.000000000000000100E-005 ), #85, 'distance_accuracy_value', 'NONE');
#29 = DIRECTION ( 'NONE',  ( -0.0000000000000000000, 1.000000000000000000, 0.0000000000000000000 ) ) ;
#30 =( GEOMETRIC_REPRESENTATION_CONTEXT ( 3 ) GLOBAL_UNCERTAINTY_ASSIGNED_CONTEXT ( ( #133 ) ) GLOBAL_UNIT_ASSIGNED_CONTEXT ( ( #78, #3, #94 ) ) REPRESENTATION_CONTEXT ( 'NONE', 'WORKASPACE' ) );
#31 = VECTOR ( 'NONE', #57, 39.37007874015748100 ) ;
#32 = PRODUCT_RELATED_PRODUCT_CATEGORY ( 'part', '', ( #92 ) ) ;
#33 = DIRECTION ( 'NONE',  ( -0.0000000000000000000, 1.000000000000000000, -0.0000000000000000000 ) ) ;
#34 = SURFACE_SIDE_STYLE ('',( #91 ) ) ;
#35 = PRODUCT_DEFINITION_SHAPE ( 'NONE', 'NONE',  #105 ) ;
#36 = DIRECTION ( 'NONE',  ( -0.0000000000000000000, 1.000000000000000000, -0.0000000000000000000 ) ) ;
#37 = ORIENTED_EDGE ( 'NONE', *, *, #26, .T. ) ;
#38 = ORIENTED_EDGE ( 'NONE', *, *, #100, .F. ) ;
#39 = EDGE_LOOP ( 'NONE', ( #11, #121, #111, #9 ) ) ;
#40 = APPLICATION_CONTEXT ( 'automotive_design' ) ;
#41 = ORIENTED_EDGE ( 'NONE', *, *, #129, .T. ) ;
#42 = DIRECTION ( 'NONE',  ( 0.0000000000000000000, 0.0000000000000000000, 1.000000000000000000 ) ) ;
#43 = ADVANCED_FACE ( 'NONE', ( #97 ), #103, .F. ) ;
#44 = DIRECTION ( 'NONE',  ( 0.0000000000000000000, 0.0000000000000000000, 1.000000000000000000 ) ) ;
#45 = VERTEX_POINT ( 'NONE', #148 ) ;
#46 = DIRECTION ( 'NONE',  ( -1.000000000000000000, 0.0000000000000000000, 0.0000000000000000000 ) ) ;
#47 = SURFACE_STYLE_USAGE ( .BOTH. , #34 ) ;
#48 = ORIENTED_EDGE ( 'NONE', *, *, #158, .T. ) ;
#49 = CARTESIAN_POINT ( 'NONE',  ( 0.0000000000000000000, 0.0000000000000000000, 0.0000000000000000000 ) ) ;
#50 = COLOUR_RGB ( '',0.7764705882352941300, 0.7568627450980391900, 0.7372549019607843600 ) ;
#51 = CIRCLE ( 'NONE', #157, 1.500000000000000200 ) ;
#52 = PRESENTATION_LAYER_ASSIGNMENT (  '', '', ( #60 ) ) ;
#53 = FILL_AREA_STYLE_COLOUR ( '', #90 ) ;
#54 = ORIENTED_EDGE ( 'NONE', *, *, #167, .F. ) ;
#55 = CARTESIAN_POINT ( 'NONE',  ( 9.827790563157511800E-017, -1.605000000000000200, 0.0000000000000000000 ) ) ;
#56 = VERTEX_POINT ( 'NONE', #49 ) ;
#57 = DIRECTION ( 'NONE',  ( 4.753086283374391900E-030, -1.000000000000000000, -1.361338017332573800E-015 ) ) ;
#58 = LENGTH_MEASURE_WITH_UNIT ( LENGTH_MEASURE( 0.02539999999999999900 ), #134 );
#59 = AXIS2_PLACEMENT_3D ( 'NONE', #67, #33, #21 ) ;
#60 = STYLED_ITEM ( 'NONE', ( #74 ), #95 ) ;
#61 = EDGE_LOOP ( 'NONE', ( #12, #38, #106 ) ) ;
#62 = CARTESIAN_POINT ( 'NONE',  ( 4.990740597543116300E-031, -0.1050000000000001100, -1.429404918199204000E-016 ) ) ;
#63 = APPLICATION_CONTEXT ( 'automotive_design' ) ;
#64 = CARTESIAN_POINT ( 'NONE',  ( -3.431354735332310200E-031, -1.605000000000000200, 9.827790563157511800E-017 ) ) ;
#65 = CARTESIAN_POINT ( 'NONE',  ( 1.605000000000000200, -1.605000000000000000, 0.0000000000000000000 ) ) ;
#66 = AXIS2_PLACEMENT_3D ( 'NONE', #10, #117, #164 ) ;
#67 = CARTESIAN_POINT ( 'NONE',  ( 0.0000000000000000000, -1.605000000000000000, 0.0000000000000000000 ) ) ;
#68 = CARTESIAN_POINT ( 'NONE',  ( -5.237222008264700000E-015, -1.605000000000000000, 1.500000000000000200 ) ) ;
#69 = DIRECTION ( 'NONE',  ( 3.491481338843133400E-015, 0.0000000000000000000, -1.000000000000000000 ) ) ;
#70 = VERTEX_POINT ( 'NONE', #65 ) ;
#71 = AXIS2_PLACEMENT_3D ( 'NONE', #4, #29, #23 ) ;
#72 =( NAMED_UNIT ( * ) PLANE_ANGLE_UNIT ( ) SI_UNIT ( $, .RADIAN. ) );
#73 = ORIENTED_EDGE ( 'NONE', *, *, #108, .T. ) ;
#74 = PRESENTATION_STYLE_ASSIGNMENT (( #169 ) ) ;
#75 = ORIENTED_EDGE ( 'NONE', *, *, #167, .T. ) ;
#76 = PRESENTATION_LAYER_ASSIGNMENT (  '', '', ( #127 ) ) ;
#77 = CLOSED_SHELL ( 'NONE', ( #156, #174, #43, #99, #114 ) ) ;
#78 =( CONVERSION_BASED_UNIT ( 'INCH', #2 ) LENGTH_UNIT ( ) NAMED_UNIT ( #130 ) );
#79 = AXIS2_PLACEMENT_3D ( 'NONE', #161, #175, #82 ) ;
#80 =( NAMED_UNIT ( * ) SI_UNIT ( $, .STERADIAN. ) SOLID_ANGLE_UNIT ( ) );
#81 = DIRECTION ( 'NONE',  ( 1.000000000000000000, 0.0000000000000000000, 3.491481338843133400E-015 ) ) ;
#82 = DIRECTION ( 'NONE',  ( -3.491481338843133700E-015, 0.0000000000000000000, 1.000000000000000000 ) ) ;
#83 = DIRECTION ( 'NONE',  ( 3.491481338843133000E-015, 0.0000000000000000000, -1.000000000000000000 ) ) ;
#84 = FILL_AREA_STYLE ('',( #115 ) ) ;
#85 =( CONVERSION_BASED_UNIT ( 'INCH', #58 ) LENGTH_UNIT ( ) NAMED_UNIT ( #20 ) );
#86 = FACE_OUTER_BOUND ( 'NONE', #88, .T. ) ;
#87 = DIRECTION ( 'NONE',  ( 1.000000000000000000, 0.0000000000000000000, 0.0000000000000000000 ) ) ;
#88 = EDGE_LOOP ( 'NONE', ( #37, #73, #160 ) ) ;
#89 = AXIS2_PLACEMENT_3D ( 'NONE', #137, #8, #83 ) ;
#90 = COLOUR_RGB ( '',0.7764705882352941300, 0.7568627450980391900, 0.7372549019607843600 ) ;
#91 = SURFACE_STYLE_FILL_AREA ( #84 ) ;
#92 = PRODUCT ( '350507', '350507', '', ( #112 ) ) ;
#93 = EDGE_LOOP ( 'NONE', ( #116, #41, #48, #75 ) ) ;
#94 =( NAMED_UNIT ( * ) SI_UNIT ( $, .STERADIAN. ) SOLID_ANGLE_UNIT ( ) );
#95 = ADVANCED_BREP_SHAPE_REPRESENTATION ( '350507', ( #152, #24 ), #30 ) ;
#96 = DIRECTION ( 'NONE',  ( 0.0000000000000000000, 0.0000000000000000000, 1.000000000000000000 ) ) ;
#97 = FACE_OUTER_BOUND ( 'NONE', #61, .T. ) ;
#98 = CARTESIAN_POINT ( 'NONE',  ( -3.431354735332310200E-031, -1.605000000000000200, 9.827790563157511800E-017 ) ) ;
#99 = ADVANCED_FACE ( 'NONE', ( #168 ), #149, .F. ) ;
#100 = EDGE_CURVE ( 'NONE', #172, #45, #113, .T. ) ;
#101 = DIRECTION ( 'NONE',  ( -1.000000000000000000, 0.0000000000000000000, 0.0000000000000000000 ) ) ;
#102 = DIRECTION ( 'NONE',  ( -0.0000000000000000000, 0.0000000000000000000, -1.000000000000000000 ) ) ;
#103 = SPHERICAL_SURFACE ( 'NONE', #66, 1.500000000000000200 ) ;
#104 = UNCERTAINTY_MEASURE_WITH_UNIT (LENGTH_MEASURE( 1.000000000000000100E-005 ), #124, 'distance_accuracy_value', 'NONE');
#105 = PRODUCT_DEFINITION ( 'UNKNOWN', '', #183, #5 ) ;
#106 = ORIENTED_EDGE ( 'NONE', *, *, #158, .F. ) ;
#107 = AXIS2_PLACEMENT_3D ( 'NONE', #128, #102, #101 ) ;
#108 = EDGE_CURVE ( 'NONE', #70, #56, #176, .T. ) ;
#109 = CARTESIAN_POINT ( 'NONE',  ( 0.0000000000000000000, 0.0000000000000000000, 0.0000000000000000000 ) ) ;
#110 = APPLICATION_PROTOCOL_DEFINITION ( 'draft international standard', 'automotive_design', 1998, #40 ) ;
#111 = ORIENTED_EDGE ( 'NONE', *, *, #151, .F. ) ;
#112 = PRODUCT_CONTEXT ( 'NONE', #40, 'mechanical' ) ;
#113 = CIRCLE ( 'NONE', #59, 1.500000000000000200 ) ;
#114 = ADVANCED_FACE ( 'NONE', ( #18 ), #163, .T. ) ;
#115 = FILL_AREA_STYLE_COLOUR ( '', #50 ) ;
#116 = ORIENTED_EDGE ( 'NONE', *, *, #143, .T. ) ;
#117 = DIRECTION ( 'NONE',  ( -1.000000000000000000, 0.0000000000000000000, -3.491481338843133000E-015 ) ) ;
#118 = SURFACE_SIDE_STYLE ('',( #135 ) ) ;
#119 = AXIS2_PLACEMENT_3D ( 'NONE', #145, #44, #131 ) ;
#120 = AXIS2_PLACEMENT_3D ( 'NONE', #181, #36, #42 ) ;
#121 = ORIENTED_EDGE ( 'NONE', *, *, #14, .F. ) ;
#122 = VERTEX_POINT ( 'NONE', #132 ) ;
#123 = ORIENTED_EDGE ( 'NONE', *, *, #100, .T. ) ;
#124 =( CONVERSION_BASED_UNIT ( 'INCH', #165 ) LENGTH_UNIT ( ) NAMED_UNIT ( #177 ) );
#125 = FACE_OUTER_BOUND ( 'NONE', #15, .T. ) ;
#126 = APPLICATION_PROTOCOL_DEFINITION ( 'draft international standard', 'automotive_design', 1998, #63 ) ;
#127 = STYLED_ITEM ( 'NONE', ( #138 ), #152 ) ;
#128 = CARTESIAN_POINT ( 'NONE',  ( 9.827790563157511800E-017, -1.605000000000000200, 0.0000000000000000000 ) ) ;
#129 = EDGE_CURVE ( 'NONE', #56, #154, #150, .T. ) ;
#130 = DIMENSIONAL_EXPONENTS ( 1.000000000000000000, 0.0000000000000000000, 0.0000000000000000000, 0.0000000000000000000, 0.0000000000000000000, 0.0000000000000000000, 0.0000000000000000000 ) ;
#131 = DIRECTION ( 'NONE',  ( -1.000000000000000000, 0.0000000000000000000, 0.0000000000000000000 ) ) ;
#132 = CARTESIAN_POINT ( 'NONE',  ( -5.603827548843230000E-015, -1.605000000000000000, 1.605000000000000200 ) ) ;
#133 = UNCERTAINTY_MEASURE_WITH_UNIT (LENGTH_MEASURE( 1.000000000000000100E-005 ), #78, 'distance_accuracy_value', 'NONE');
#134 =( LENGTH_UNIT ( ) NAMED_UNIT ( * ) SI_UNIT ( $, .METRE. ) );
#135 = SURFACE_STYLE_FILL_AREA ( #170 ) ;
#136 = CIRCLE ( 'NONE', #166, 1.605000000000000200 ) ;
#137 = CARTESIAN_POINT ( 'NONE',  ( -3.431354735332310200E-031, -1.605000000000000200, 9.827790563157511800E-017 ) ) ;
#138 = PRESENTATION_STYLE_ASSIGNMENT (( #47 ) ) ;
#139 = VECTOR ( 'NONE', #147, 39.37007874015748100 ) ;
#140 = VECTOR ( 'NONE', #87, 39.37007874015748100 ) ;
#141 = AXIS2_PLACEMENT_3D ( 'NONE', #98, #81, #171 ) ;
#142 = ORIENTED_EDGE ( 'NONE', *, *, #14, .T. ) ;
#143 = EDGE_CURVE ( 'NONE', #122, #56, #136, .T. ) ;
#144 =( NAMED_UNIT ( * ) PLANE_ANGLE_UNIT ( ) SI_UNIT ( $, .RADIAN. ) );
#145 = CARTESIAN_POINT ( 'NONE',  ( 9.827790563157511800E-017, -1.605000000000000200, 0.0000000000000000000 ) ) ;
#146 = DIRECTION ( 'NONE',  ( -1.000000000000000000, 0.0000000000000000000, -3.491481338843133400E-015 ) ) ;
#147 = DIRECTION ( 'NONE',  ( -3.491481338843133000E-015, 0.0000000000000000000, 1.000000000000000000 ) ) ;
#148 = CARTESIAN_POINT ( 'NONE',  ( 1.500000000000000200, -1.605000000000000000, 0.0000000000000000000 ) ) ;
#149 = PLANE ( 'NONE',  #89 ) ;
#150 = LINE ( 'NONE', #159, #31 ) ;
#151 = EDGE_CURVE ( 'NONE', #154, #45, #51, .T. ) ;
#152 = MANIFOLD_SOLID_BREP ( 'Revolve1', #77 ) ;
#153 =( LENGTH_UNIT ( ) NAMED_UNIT ( * ) SI_UNIT ( $, .METRE. ) );
#154 = VERTEX_POINT ( 'NONE', #62 ) ;
#155 = CIRCLE ( 'NONE', #120, 1.605000000000000200 ) ;
#156 = ADVANCED_FACE ( 'NONE', ( #86 ), #17, .T. ) ;
#157 = AXIS2_PLACEMENT_3D ( 'NONE', #55, #179, #46 ) ;
#158 = EDGE_CURVE ( 'NONE', #154, #172, #22, .T. ) ;
#159 = CARTESIAN_POINT ( 'NONE',  ( 0.0000000000000000000, 0.0000000000000000000, 0.0000000000000000000 ) ) ;
#160 = ORIENTED_EDGE ( 'NONE', *, *, #143, .F. ) ;
#161 = CARTESIAN_POINT ( 'NONE',  ( -3.431354735332310200E-031, -1.605000000000000200, 9.827790563157511800E-017 ) ) ;
#162 =( NAMED_UNIT ( * ) SI_UNIT ( $, .STERADIAN. ) SOLID_ANGLE_UNIT ( ) );
#163 = PLANE ( 'NONE',  #107 ) ;
#164 = DIRECTION ( 'NONE',  ( 3.491481338843133000E-015, 0.0000000000000000000, -1.000000000000000000 ) ) ;
#165 = LENGTH_MEASURE_WITH_UNIT ( LENGTH_MEASURE( 0.02539999999999999900 ), #182 );
#166 = AXIS2_PLACEMENT_3D ( 'NONE', #64, #146, #69 ) ;
#167 = EDGE_CURVE ( 'NONE', #172, #122, #180, .T. ) ;
#168 = FACE_OUTER_BOUND ( 'NONE', #93, .T. ) ;
#169 = SURFACE_STYLE_USAGE ( .BOTH. , #118 ) ;
#170 = FILL_AREA_STYLE ('',( #53 ) ) ;
#171 = DIRECTION ( 'NONE',  ( 3.491481338843133000E-015, 0.0000000000000000000, -1.000000000000000000 ) ) ;
#172 = VERTEX_POINT ( 'NONE', #68 ) ;
#173 = CARTESIAN_POINT ( 'NONE',  ( 1.500000000000000200, -1.605000000000000000, 0.0000000000000000000 ) ) ;
#174 = ADVANCED_FACE ( 'NONE', ( #125 ), #6, .F. ) ;
#175 = DIRECTION ( 'NONE',  ( 1.000000000000000000, 0.0000000000000000000, 3.491481338843133700E-015 ) ) ;
#176 = CIRCLE ( 'NONE', #119, 1.605000000000000200 ) ;
#177 = DIMENSIONAL_EXPONENTS ( 1.000000000000000000, 0.0000000000000000000, 0.0000000000000000000, 0.0000000000000000000, 0.0000000000000000000, 0.0000000000000000000, 0.0000000000000000000 ) ;
#178 = MECHANICAL_DESIGN_GEOMETRIC_PRESENTATION_REPRESENTATION (  '', ( #60 ), #13 ) ;
#179 = DIRECTION ( 'NONE',  ( -0.0000000000000000000, -0.0000000000000000000, -1.000000000000000000 ) ) ;
#180 = LINE ( 'NONE', #19, #139 ) ;
#181 = CARTESIAN_POINT ( 'NONE',  ( 0.0000000000000000000, -1.605000000000000000, 0.0000000000000000000 ) ) ;
#182 =( LENGTH_UNIT ( ) NAMED_UNIT ( * ) SI_UNIT ( $, .METRE. ) );
#183 = PRODUCT_DEFINITION_FORMATION_WITH_SPECIFIED_SOURCE ( 'ANY', '', #92, .NOT_KNOWN. ) ;
#184 =( GEOMETRIC_REPRESENTATION_CONTEXT ( 3 ) GLOBAL_UNCERTAINTY_ASSIGNED_CONTEXT ( ( #28 ) ) GLOBAL_UNIT_ASSIGNED_CONTEXT ( ( #85, #72, #162 ) ) REPRESENTATION_CONTEXT ( 'NONE', 'WORKASPACE' ) );
ENDSEC;
END-ISO-10303-21;
