ISO-10303-21;
HEADER;
FILE_DESCRIPTION (( 'STEP AP203' ),
    '1' );
FILE_NAME ('350506.STEP',
    '2017-01-16T23:06:28',
    ( 'temp' ),
    ( '' ),
    'SwSTEP 2.0',
    'SolidWorks 2016',
    '' );
FILE_SCHEMA (( 'CONFIG_CONTROL_DESIGN' ));
ENDSEC;

DATA;
#1 = DIRECTION ( 'NONE',  ( 1.000000000000000000, 0.0000000000000000000, 0.0000000000000000000 ) ) ;
#2 = VERTEX_POINT ( 'NONE', #175 ) ;
#3 = CARTESIAN_POINT ( 'NONE',  ( 9.735942053221459900E-017, -1.590000000000000300, 0.0000000000000000000 ) ) ;
#4 = EDGE_CURVE ( 'NONE', #103, #87, #123, .T. ) ;
#5 = DIRECTION ( 'NONE',  ( 1.000000000000000000, 0.0000000000000000000, 3.491481338843133400E-015 ) ) ;
#6 = CARTESIAN_POINT ( 'NONE',  ( 0.0000000000000000000, -1.590000000000000100, 0.0000000000000000000 ) ) ;
#7 = LOCAL_TIME ( 15, 6, 28.00000000000000000, #195 ) ;
#8 = VECTOR ( 'NONE', #1, 39.37007874015748100 ) ;
#9 = CALENDAR_DATE ( 2017, 16, 1 ) ;
#10 = ADVANCED_FACE ( 'NONE', ( #114 ), #133, .F. ) ;
#11 = DIRECTION ( 'NONE',  ( -0.0000000000000000000, 1.000000000000000000, -0.0000000000000000000 ) ) ;
#12 = UNCERTAINTY_MEASURE_WITH_UNIT (LENGTH_MEASURE( 1.000000000000000100E-005 ), #170, 'distance_accuracy_value', 'NONE');
#13 = CC_DESIGN_SECURITY_CLASSIFICATION ( #32, ( #33 ) ) ;
#14 = DIRECTION ( 'NONE',  ( 0.0000000000000000000, 0.0000000000000000000, 1.000000000000000000 ) ) ;
#15 = SHAPE_DEFINITION_REPRESENTATION ( #76, #164 ) ;
#16 = CIRCLE ( 'NONE', #95, 1.500000000000000400 ) ;
#17 = PRODUCT ( '350506', '350506', '', ( #141 ) ) ;
#18 = ORIENTED_EDGE ( 'NONE', *, *, #151, .T. ) ;
#19 = AXIS2_PLACEMENT_3D ( 'NONE', #47, #117, #152 ) ;
#20 = SPHERICAL_SURFACE ( 'NONE', #93, 1.590000000000000300 ) ;
#21 =( NAMED_UNIT ( * ) SI_UNIT ( $, .STERADIAN. ) SOLID_ANGLE_UNIT ( ) );
#22 = PERSON_AND_ORGANIZATION ( #51, #156 ) ;
#23 = CC_DESIGN_PERSON_AND_ORGANIZATION_ASSIGNMENT ( #73, #146, ( #32 ) ) ;
#24 = APPROVAL_DATE_TIME ( #186, #184 ) ;
#25 = APPROVAL ( #157, 'UNSPECIFIED' ) ;
#26 = APPLICATION_CONTEXT ( 'configuration controlled 3d designs of mechanical parts and assemblies' ) ;
#27 = DIRECTION ( 'NONE',  ( -1.000000000000000000, 0.0000000000000000000, 0.0000000000000000000 ) ) ;
#28 = APPLICATION_PROTOCOL_DEFINITION ( 'international standard', 'config_control_design', 1994, #26 ) ;
#29 = PLANE ( 'NONE',  #127 ) ;
#30 = CARTESIAN_POINT ( 'NONE',  ( 1.590000000000000100, -1.590000000000000100, 0.0000000000000000000 ) ) ;
#31 = SECURITY_CLASSIFICATION_LEVEL ( 'unclassified' ) ;
#32 = SECURITY_CLASSIFICATION ( '', '', #31 ) ;
#33 = PRODUCT_DEFINITION_FORMATION_WITH_SPECIFIED_SOURCE ( 'ANY', '', #17, .NOT_KNOWN. ) ;
#34 = APPROVAL_PERSON_ORGANIZATION ( #134, #184, #53 ) ;
#35 = AXIS2_PLACEMENT_3D ( 'NONE', #102, #190, #84 ) ;
#36 = CC_DESIGN_PERSON_AND_ORGANIZATION_ASSIGNMENT ( #163, #115, ( #145 ) ) ;
#37 = CIRCLE ( 'NONE', #122, 1.500000000000000400 ) ;
#38 = DIRECTION ( 'NONE',  ( 3.491481338843133000E-015, 0.0000000000000000000, -1.000000000000000000 ) ) ;
#39 = CC_DESIGN_DATE_AND_TIME_ASSIGNMENT ( #58, #201, ( #145 ) ) ;
#40 = ORIENTED_EDGE ( 'NONE', *, *, #129, .T. ) ;
#41 = CARTESIAN_POINT ( 'NONE',  ( -3.399285999488083100E-031, -1.590000000000000300, 9.735942053221459900E-017 ) ) ;
#42 = ORIENTED_EDGE ( 'NONE', *, *, #75, .T. ) ;
#43 = EDGE_CURVE ( 'NONE', #177, #94, #37, .T. ) ;
#44 = EDGE_LOOP ( 'NONE', ( #18, #171, #74 ) ) ;
#45 = ORIENTED_EDGE ( 'NONE', *, *, #139, .F. ) ;
#46 = DIRECTION ( 'NONE',  ( 0.0000000000000000000, 0.0000000000000000000, 1.000000000000000000 ) ) ;
#47 = CARTESIAN_POINT ( 'NONE',  ( -5.237222008264700800E-015, -1.590000000000000100, 1.500000000000000400 ) ) ;
#48 = PERSON_AND_ORGANIZATION ( #51, #156 ) ;
#49 = PRODUCT_RELATED_PRODUCT_CATEGORY ( 'detail', '', ( #17 ) ) ;
#50 = VECTOR ( 'NONE', #200, 39.37007874015748100 ) ;
#51 = PERSON ( 'UNSPECIFIED', 'UNSPECIFIED', 'UNSPECIFIED', ('UNSPECIFIED'), ('UNSPECIFIED'), ('UNSPECIFIED') ) ;
#52 = DIRECTION ( 'NONE',  ( -1.000000000000000000, 0.0000000000000000000, 0.0000000000000000000 ) ) ;
#53 = APPROVAL_ROLE ( '' ) ;
#54 = FACE_OUTER_BOUND ( 'NONE', #72, .T. ) ;
#55 = ORIENTED_EDGE ( 'NONE', *, *, #77, .F. ) ;
#56 = APPROVAL_PERSON_ORGANIZATION ( #22, #25, #118 ) ;
#57 = CALENDAR_DATE ( 2017, 16, 1 ) ;
#58 = DATE_AND_TIME ( #78, #140 ) ;
#59 = FACE_OUTER_BOUND ( 'NONE', #150, .T. ) ;
#60 = DIRECTION ( 'NONE',  ( 0.0000000000000000000, 0.0000000000000000000, 1.000000000000000000 ) ) ;
#61 = CC_DESIGN_DATE_AND_TIME_ASSIGNMENT ( #109, #67, ( #32 ) ) ;
#62 = VERTEX_POINT ( 'NONE', #209 ) ;
#63 = CARTESIAN_POINT ( 'NONE',  ( -5.237222008264700800E-015, -1.590000000000000100, 1.500000000000000400 ) ) ;
#64 = APPROVAL_DATE_TIME ( #66, #25 ) ;
#65 = CARTESIAN_POINT ( 'NONE',  ( -5.237222008264700800E-015, -1.590000000000000100, 1.500000000000000400 ) ) ;
#66 = DATE_AND_TIME ( #57, #86 ) ;
#67 = DATE_TIME_ROLE ( 'classification_date' ) ;
#68 = LENGTH_MEASURE_WITH_UNIT ( LENGTH_MEASURE( 0.02539999999999999900 ), #172 );
#69 = CIRCLE ( 'NONE', #194, 1.590000000000000100 ) ;
#70 = PERSON_AND_ORGANIZATION ( #51, #156 ) ;
#71 = DIRECTION ( 'NONE',  ( -3.491481338843133400E-015, 0.0000000000000000000, 1.000000000000000000 ) ) ;
#72 = EDGE_LOOP ( 'NONE', ( #161, #168, #169, #45 ) ) ;
#73 = PERSON_AND_ORGANIZATION ( #51, #156 ) ;
#74 = ORIENTED_EDGE ( 'NONE', *, *, #174, .F. ) ;
#75 = EDGE_CURVE ( 'NONE', #177, #62, #166, .T. ) ;
#76 = PRODUCT_DEFINITION_SHAPE ( 'NONE', 'NONE',  #145 ) ;
#77 = EDGE_CURVE ( 'NONE', #62, #87, #100, .T. ) ;
#78 = CALENDAR_DATE ( 2017, 16, 1 ) ;
#79 = DIRECTION ( 'NONE',  ( 3.491481338843133400E-015, 0.0000000000000000000, -1.000000000000000000 ) ) ;
#80 = AXIS2_PLACEMENT_3D ( 'NONE', #192, #46, #52 ) ;
#81 = COORDINATED_UNIVERSAL_TIME_OFFSET ( 8, 0, .BEHIND. ) ;
#82 = CC_DESIGN_APPROVAL ( #184, ( #33 ) ) ;
#83 = APPROVAL_STATUS ( 'not_yet_approved' ) ;
#84 = DIRECTION ( 'NONE',  ( 3.491481338843133000E-015, 0.0000000000000000000, -1.000000000000000000 ) ) ;
#85 = EDGE_LOOP ( 'NONE', ( #137, #148, #136, #162 ) ) ;
#86 = LOCAL_TIME ( 15, 6, 28.00000000000000000, #205 ) ;
#87 = VERTEX_POINT ( 'NONE', #97 ) ;
#88 = COORDINATED_UNIVERSAL_TIME_OFFSET ( 8, 0, .BEHIND. ) ;
#89 = DIRECTION ( 'NONE',  ( -1.000000000000000000, 0.0000000000000000000, 0.0000000000000000000 ) ) ;
#90 = DIRECTION ( 'NONE',  ( -1.000000000000000000, 0.0000000000000000000, -3.491481338843133400E-015 ) ) ;
#91 = ORIENTED_EDGE ( 'NONE', *, *, #4, .T. ) ;
#92 = APPROVAL_STATUS ( 'not_yet_approved' ) ;
#93 = AXIS2_PLACEMENT_3D ( 'NONE', #112, #5, #71 ) ;
#94 = VERTEX_POINT ( 'NONE', #104 ) ;
#95 = AXIS2_PLACEMENT_3D ( 'NONE', #3, #154, #27 ) ;
#96 = DIRECTION ( 'NONE',  ( 3.491481338843133000E-015, 0.0000000000000000000, -1.000000000000000000 ) ) ;
#97 = CARTESIAN_POINT ( 'NONE',  ( 0.0000000000000000000, 0.0000000000000000000, 0.0000000000000000000 ) ) ;
#98 = APPROVAL_ROLE ( '' ) ;
#99 = CARTESIAN_POINT ( 'NONE',  ( 0.0000000000000000000, 0.0000000000000000000, 0.0000000000000000000 ) ) ;
#100 = CIRCLE ( 'NONE', #210, 1.590000000000000300 ) ;
#101 = APPROVAL_DATE_TIME ( #213, #105 ) ;
#102 = CARTESIAN_POINT ( 'NONE',  ( -3.399285999488083100E-031, -1.590000000000000300, 9.735942053221459900E-017 ) ) ;
#103 = VERTEX_POINT ( 'NONE', #30 ) ;
#104 = CARTESIAN_POINT ( 'NONE',  ( 1.500000000000000400, -1.590000000000000100, 0.0000000000000000000 ) ) ;
#105 = APPROVAL ( #83, 'UNSPECIFIED' ) ;
#106 = ORIENTED_EDGE ( 'NONE', *, *, #139, .T. ) ;
#107 = VECTOR ( 'NONE', #131, 39.37007874015748100 ) ;
#108 = DIMENSIONAL_EXPONENTS ( 1.000000000000000000, 0.0000000000000000000, 0.0000000000000000000, 0.0000000000000000000, 0.0000000000000000000, 0.0000000000000000000, 0.0000000000000000000 ) ;
#109 = DATE_AND_TIME ( #113, #132 ) ;
#110 = CALENDAR_DATE ( 2017, 16, 1 ) ;
#111 = EDGE_CURVE ( 'NONE', #94, #103, #120, .T. ) ;
#112 = CARTESIAN_POINT ( 'NONE',  ( -3.399285999488083100E-031, -1.590000000000000300, 9.735942053221459900E-017 ) ) ;
#113 = CALENDAR_DATE ( 2017, 16, 1 ) ;
#114 = FACE_OUTER_BOUND ( 'NONE', #85, .T. ) ;
#115 = PERSON_AND_ORGANIZATION_ROLE ( 'creator' ) ;
#116 = FACE_OUTER_BOUND ( 'NONE', #44, .T. ) ;
#117 = DIRECTION ( 'NONE',  ( -0.0000000000000000000, 1.000000000000000000, 0.0000000000000000000 ) ) ;
#118 = APPROVAL_ROLE ( '' ) ;
#119 = ADVANCED_FACE ( 'NONE', ( #116 ), #173, .F. ) ;
#120 = LINE ( 'NONE', #128, #8 ) ;
#121 =( NAMED_UNIT ( * ) PLANE_ANGLE_UNIT ( ) SI_UNIT ( $, .RADIAN. ) );
#122 = AXIS2_PLACEMENT_3D ( 'NONE', #6, #11, #185 ) ;
#123 = CIRCLE ( 'NONE', #80, 1.590000000000000300 ) ;
#124 = ADVANCED_FACE ( 'NONE', ( #54 ), #29, .T. ) ;
#125 = AXIS2_PLACEMENT_3D ( 'NONE', #203, #211, #38 ) ;
#126 = CARTESIAN_POINT ( 'NONE',  ( 9.735942053221459900E-017, -1.590000000000000300, 0.0000000000000000000 ) ) ;
#127 = AXIS2_PLACEMENT_3D ( 'NONE', #126, #155, #89 ) ;
#128 = CARTESIAN_POINT ( 'NONE',  ( 1.500000000000000400, -1.590000000000000100, 0.0000000000000000000 ) ) ;
#129 = EDGE_CURVE ( 'NONE', #62, #103, #69, .T. ) ;
#130 = PERSON_AND_ORGANIZATION_ROLE ( 'creator' ) ;
#131 = DIRECTION ( 'NONE',  ( 5.580899259319280100E-030, -1.000000000000000000, -1.598433076880901800E-015 ) ) ;
#132 = LOCAL_TIME ( 15, 6, 28.00000000000000000, #81 ) ;
#133 = PLANE ( 'NONE',  #19 ) ;
#134 = PERSON_AND_ORGANIZATION ( #51, #156 ) ;
#135 = PERSON_AND_ORGANIZATION_ROLE ( 'design_owner' ) ;
#136 = ORIENTED_EDGE ( 'NONE', *, *, #129, .F. ) ;
#137 = ORIENTED_EDGE ( 'NONE', *, *, #43, .T. ) ;
#138 = LINE ( 'NONE', #181, #107 ) ;
#139 = EDGE_CURVE ( 'NONE', #87, #2, #138, .T. ) ;
#140 = LOCAL_TIME ( 15, 6, 28.00000000000000000, #180 ) ;
#141 = MECHANICAL_CONTEXT ( 'NONE', #26, 'mechanical' ) ;
#142 = DIRECTION ( 'NONE',  ( 1.000000000000000000, 0.0000000000000000000, 3.491481338843133000E-015 ) ) ;
#143 = CIRCLE ( 'NONE', #35, 1.500000000000000400 ) ;
#144 = DIRECTION ( 'NONE',  ( -0.0000000000000000000, 1.000000000000000000, -0.0000000000000000000 ) ) ;
#145 = PRODUCT_DEFINITION ( 'UNKNOWN', '', #33, #191 ) ;
#146 = PERSON_AND_ORGANIZATION_ROLE ( 'classification_officer' ) ;
#147 = CARTESIAN_POINT ( 'NONE',  ( -3.399285999488083100E-031, -1.590000000000000300, 9.735942053221459900E-017 ) ) ;
#148 = ORIENTED_EDGE ( 'NONE', *, *, #111, .T. ) ;
#149 = CLOSED_SHELL ( 'NONE', ( #182, #10, #119, #207, #124 ) ) ;
#150 = EDGE_LOOP ( 'NONE', ( #206, #106, #187, #42 ) ) ;
#151 = EDGE_CURVE ( 'NONE', #2, #94, #16, .T. ) ;
#152 = DIRECTION ( 'NONE',  ( 0.0000000000000000000, 0.0000000000000000000, 1.000000000000000000 ) ) ;
#153 =( GEOMETRIC_REPRESENTATION_CONTEXT ( 3 ) GLOBAL_UNCERTAINTY_ASSIGNED_CONTEXT ( ( #12 ) ) GLOBAL_UNIT_ASSIGNED_CONTEXT ( ( #170, #121, #21 ) ) REPRESENTATION_CONTEXT ( 'NONE', 'WORKASPACE' ) );
#154 = DIRECTION ( 'NONE',  ( -0.0000000000000000000, -0.0000000000000000000, -1.000000000000000000 ) ) ;
#155 = DIRECTION ( 'NONE',  ( -0.0000000000000000000, 0.0000000000000000000, -1.000000000000000000 ) ) ;
#156 = ORGANIZATION ( 'UNSPECIFIED', 'UNSPECIFIED', '' ) ;
#157 = APPROVAL_STATUS ( 'not_yet_approved' ) ;
#158 = CC_DESIGN_PERSON_AND_ORGANIZATION_ASSIGNMENT ( #48, #130, ( #33 ) ) ;
#159 = FACE_OUTER_BOUND ( 'NONE', #176, .T. ) ;
#160 = PERSON_AND_ORGANIZATION ( #51, #156 ) ;
#161 = ORIENTED_EDGE ( 'NONE', *, *, #4, .F. ) ;
#162 = ORIENTED_EDGE ( 'NONE', *, *, #75, .F. ) ;
#163 = PERSON_AND_ORGANIZATION ( #51, #156 ) ;
#164 = ADVANCED_BREP_SHAPE_REPRESENTATION ( '350506', ( #188, #167 ), #153 ) ;
#165 = PLANE ( 'NONE',  #183 ) ;
#166 = LINE ( 'NONE', #63, #50 ) ;
#167 = AXIS2_PLACEMENT_3D ( 'NONE', #99, #14, #196 ) ;
#168 = ORIENTED_EDGE ( 'NONE', *, *, #111, .F. ) ;
#169 = ORIENTED_EDGE ( 'NONE', *, *, #151, .F. ) ;
#170 =( CONVERSION_BASED_UNIT ( 'INCH', #68 ) LENGTH_UNIT ( ) NAMED_UNIT ( #108 ) );
#171 = ORIENTED_EDGE ( 'NONE', *, *, #43, .F. ) ;
#172 =( LENGTH_UNIT ( ) NAMED_UNIT ( * ) SI_UNIT ( $, .METRE. ) );
#173 = SPHERICAL_SURFACE ( 'NONE', #125, 1.500000000000000400 ) ;
#174 = EDGE_CURVE ( 'NONE', #2, #177, #143, .T. ) ;
#175 = CARTESIAN_POINT ( 'NONE',  ( 5.022809333387344200E-031, -0.08999999999999985800, -1.438589769192809500E-016 ) ) ;
#176 = EDGE_LOOP ( 'NONE', ( #40, #91, #55 ) ) ;
#177 = VERTEX_POINT ( 'NONE', #65 ) ;
#178 = CARTESIAN_POINT ( 'NONE',  ( 0.0000000000000000000, -1.590000000000000100, 0.0000000000000000000 ) ) ;
#179 = APPLICATION_CONTEXT ( 'configuration controlled 3d designs of mechanical parts and assemblies' ) ;
#180 = COORDINATED_UNIVERSAL_TIME_OFFSET ( 8, 0, .BEHIND. ) ;
#181 = CARTESIAN_POINT ( 'NONE',  ( 0.0000000000000000000, 0.0000000000000000000, 0.0000000000000000000 ) ) ;
#182 = ADVANCED_FACE ( 'NONE', ( #159 ), #20, .T. ) ;
#183 = AXIS2_PLACEMENT_3D ( 'NONE', #41, #142, #96 ) ;
#184 = APPROVAL ( #92, 'UNSPECIFIED' ) ;
#185 = DIRECTION ( 'NONE',  ( 0.0000000000000000000, 0.0000000000000000000, 1.000000000000000000 ) ) ;
#186 = DATE_AND_TIME ( #9, #7 ) ;
#187 = ORIENTED_EDGE ( 'NONE', *, *, #174, .T. ) ;
#188 = MANIFOLD_SOLID_BREP ( 'Revolve1', #149 ) ;
#189 = PERSON_AND_ORGANIZATION ( #51, #156 ) ;
#190 = DIRECTION ( 'NONE',  ( 1.000000000000000000, 0.0000000000000000000, 3.491481338843133400E-015 ) ) ;
#191 = DESIGN_CONTEXT ( 'detailed design', #179, 'design' ) ;
#192 = CARTESIAN_POINT ( 'NONE',  ( 9.735942053221459900E-017, -1.590000000000000300, 0.0000000000000000000 ) ) ;
#193 = CC_DESIGN_APPROVAL ( #25, ( #145 ) ) ;
#194 = AXIS2_PLACEMENT_3D ( 'NONE', #178, #144, #60 ) ;
#195 = COORDINATED_UNIVERSAL_TIME_OFFSET ( 8, 0, .BEHIND. ) ;
#196 = DIRECTION ( 'NONE',  ( 1.000000000000000000, 0.0000000000000000000, 0.0000000000000000000 ) ) ;
#197 = APPLICATION_PROTOCOL_DEFINITION ( 'international standard', 'config_control_design', 1994, #179 ) ;
#198 = LOCAL_TIME ( 15, 6, 28.00000000000000000, #88 ) ;
#199 = PERSON_AND_ORGANIZATION_ROLE ( 'design_supplier' ) ;
#200 = DIRECTION ( 'NONE',  ( -3.491481338843133000E-015, 0.0000000000000000000, 1.000000000000000000 ) ) ;
#201 = DATE_TIME_ROLE ( 'creation_date' ) ;
#202 = CC_DESIGN_APPROVAL ( #105, ( #32 ) ) ;
#203 = CARTESIAN_POINT ( 'NONE',  ( -3.399285999488083100E-031, -1.590000000000000300, 9.735942053221459900E-017 ) ) ;
#204 = APPROVAL_PERSON_ORGANIZATION ( #189, #105, #98 ) ;
#205 = COORDINATED_UNIVERSAL_TIME_OFFSET ( 8, 0, .BEHIND. ) ;
#206 = ORIENTED_EDGE ( 'NONE', *, *, #77, .T. ) ;
#207 = ADVANCED_FACE ( 'NONE', ( #59 ), #165, .F. ) ;
#208 = CC_DESIGN_PERSON_AND_ORGANIZATION_ASSIGNMENT ( #160, #135, ( #17 ) ) ;
#209 = CARTESIAN_POINT ( 'NONE',  ( -5.551455328760582500E-015, -1.590000000000000100, 1.590000000000000100 ) ) ;
#210 = AXIS2_PLACEMENT_3D ( 'NONE', #147, #90, #79 ) ;
#211 = DIRECTION ( 'NONE',  ( -1.000000000000000000, 0.0000000000000000000, -3.491481338843133000E-015 ) ) ;
#212 = CC_DESIGN_PERSON_AND_ORGANIZATION_ASSIGNMENT ( #70, #199, ( #33 ) ) ;
#213 = DATE_AND_TIME ( #110, #198 ) ;
ENDSEC;
END-ISO-10303-21;
