ISO-10303-21;
HEADER;
FILE_DESCRIPTION (( 'STEP AP203' ),
    '1' );
FILE_NAME ('350505.STEP',
    '2017-01-16T23:06:49',
    ( 'temp' ),
    ( '' ),
    'SwSTEP 2.0',
    'SolidWorks 2016',
    '' );
FILE_SCHEMA (( 'CONFIG_CONTROL_DESIGN' ));
ENDSEC;

DATA;
#1 = DIRECTION ( 'NONE',  ( 0.0000000000000000000, 0.0000000000000000000, 1.000000000000000000 ) ) ;
#2 = CIRCLE ( 'NONE', #96, 1.500000000000000200 ) ;
#3 = ORIENTED_EDGE ( 'NONE', *, *, #191, .T. ) ;
#4 = PERSON_AND_ORGANIZATION ( #154, #43 ) ;
#5 = ORIENTED_EDGE ( 'NONE', *, *, #155, .T. ) ;
#6 = DIRECTION ( 'NONE',  ( 1.000000000000000000, 0.0000000000000000000, 3.491481338843133000E-015 ) ) ;
#7 = CARTESIAN_POINT ( 'NONE',  ( -5.499083108677935000E-015, -1.574999999999999700, 1.575000000000000000 ) ) ;
#8 = APPROVAL ( #75, 'UNSPECIFIED' ) ;
#9 = CIRCLE ( 'NONE', #104, 1.500000000000000200 ) ;
#10 = LOCAL_TIME ( 15, 6, 49.00000000000000000, #183 ) ;
#11 = AXIS2_PLACEMENT_3D ( 'NONE', #55, #63, #107 ) ;
#12 = FACE_OUTER_BOUND ( 'NONE', #37, .T. ) ;
#13 = APPROVAL_ROLE ( '' ) ;
#14 = DATE_AND_TIME ( #48, #83 ) ;
#15 = ORIENTED_EDGE ( 'NONE', *, *, #168, .F. ) ;
#16 = SPHERICAL_SURFACE ( 'NONE', #146, 1.500000000000000200 ) ;
#17 = ADVANCED_FACE ( 'NONE', ( #30 ), #61, .T. ) ;
#18 = CARTESIAN_POINT ( 'NONE',  ( 9.644093543285405500E-017, -1.575000000000000000, 0.0000000000000000000 ) ) ;
#19 = PERSON_AND_ORGANIZATION ( #154, #43 ) ;
#20 = FACE_OUTER_BOUND ( 'NONE', #140, .T. ) ;
#21 = VERTEX_POINT ( 'NONE', #205 ) ;
#22 = APPROVAL_STATUS ( 'not_yet_approved' ) ;
#23 = DATE_TIME_ROLE ( 'classification_date' ) ;
#24 = VERTEX_POINT ( 'NONE', #124 ) ;
#25 = ORIENTED_EDGE ( 'NONE', *, *, #197, .T. ) ;
#26 =( GEOMETRIC_REPRESENTATION_CONTEXT ( 3 ) GLOBAL_UNCERTAINTY_ASSIGNED_CONTEXT ( ( #39 ) ) GLOBAL_UNIT_ASSIGNED_CONTEXT ( ( #45, #70, #179 ) ) REPRESENTATION_CONTEXT ( 'NONE', 'WORKASPACE' ) );
#27 = PRODUCT ( '350505', '350505', '', ( #136 ) ) ;
#28 = AXIS2_PLACEMENT_3D ( 'NONE', #133, #92, #110 ) ;
#29 = APPROVAL ( #22, 'UNSPECIFIED' ) ;
#30 = FACE_OUTER_BOUND ( 'NONE', #64, .T. ) ;
#31 = DATE_AND_TIME ( #115, #103 ) ;
#32 = DIRECTION ( 'NONE',  ( 0.0000000000000000000, 0.0000000000000000000, 1.000000000000000000 ) ) ;
#33 = VERTEX_POINT ( 'NONE', #122 ) ;
#34 = ORIENTED_EDGE ( 'NONE', *, *, #128, .T. ) ;
#35 = VERTEX_POINT ( 'NONE', #7 ) ;
#36 = PERSON_AND_ORGANIZATION_ROLE ( 'classification_officer' ) ;
#37 = EDGE_LOOP ( 'NONE', ( #71, #5, #3, #131 ) ) ;
#38 = PLANE ( 'NONE',  #166 ) ;
#39 = UNCERTAINTY_MEASURE_WITH_UNIT (LENGTH_MEASURE( 1.000000000000000100E-005 ), #45, 'distance_accuracy_value', 'NONE');
#40 = SECURITY_CLASSIFICATION_LEVEL ( 'unclassified' ) ;
#41 = SHAPE_DEFINITION_REPRESENTATION ( #46, #151 ) ;
#42 = CARTESIAN_POINT ( 'NONE',  ( 5.054878069231570400E-031, -0.07499999999999988600, -1.447774620186414400E-016 ) ) ;
#43 = ORGANIZATION ( 'UNSPECIFIED', 'UNSPECIFIED', '' ) ;
#44 = PERSON_AND_ORGANIZATION_ROLE ( 'design_supplier' ) ;
#45 =( CONVERSION_BASED_UNIT ( 'INCH', #57 ) LENGTH_UNIT ( ) NAMED_UNIT ( #85 ) );
#46 = PRODUCT_DEFINITION_SHAPE ( 'NONE', 'NONE',  #158 ) ;
#47 = CC_DESIGN_PERSON_AND_ORGANIZATION_ASSIGNMENT ( #113, #44, ( #93 ) ) ;
#48 = CALENDAR_DATE ( 2017, 16, 1 ) ;
#49 = DIRECTION ( 'NONE',  ( -1.000000000000000000, 0.0000000000000000000, -3.491481338843133000E-015 ) ) ;
#50 = PERSON_AND_ORGANIZATION ( #154, #43 ) ;
#51 = VERTEX_POINT ( 'NONE', #42 ) ;
#52 = PLANE ( 'NONE',  #134 ) ;
#53 = DIRECTION ( 'NONE',  ( -0.0000000000000000000, 1.000000000000000000, -0.0000000000000000000 ) ) ;
#54 = PERSON_AND_ORGANIZATION_ROLE ( 'creator' ) ;
#55 = CARTESIAN_POINT ( 'NONE',  ( 0.0000000000000000000, 0.0000000000000000000, 0.0000000000000000000 ) ) ;
#56 = MANIFOLD_SOLID_BREP ( 'Revolve1', #99 ) ;
#57 = LENGTH_MEASURE_WITH_UNIT ( LENGTH_MEASURE( 0.02539999999999999900 ), #184 );
#58 = VECTOR ( 'NONE', #121, 39.37007874015748100 ) ;
#59 = CARTESIAN_POINT ( 'NONE',  ( 0.0000000000000000000, -1.574999999999999700, 0.0000000000000000000 ) ) ;
#60 = DIRECTION ( 'NONE',  ( -1.000000000000000000, 0.0000000000000000000, 0.0000000000000000000 ) ) ;
#61 = SPHERICAL_SURFACE ( 'NONE', #62, 1.575000000000000000 ) ;
#62 = AXIS2_PLACEMENT_3D ( 'NONE', #204, #177, #69 ) ;
#63 = DIRECTION ( 'NONE',  ( 0.0000000000000000000, 0.0000000000000000000, 1.000000000000000000 ) ) ;
#64 = EDGE_LOOP ( 'NONE', ( #65, #34, #66 ) ) ;
#65 = ORIENTED_EDGE ( 'NONE', *, *, #172, .T. ) ;
#66 = ORIENTED_EDGE ( 'NONE', *, *, #141, .F. ) ;
#67 = APPROVAL_ROLE ( '' ) ;
#68 = CC_DESIGN_DATE_AND_TIME_ASSIGNMENT ( #14, #78, ( #158 ) ) ;
#69 = DIRECTION ( 'NONE',  ( -3.491481338843133400E-015, 0.0000000000000000000, 1.000000000000000000 ) ) ;
#70 =( NAMED_UNIT ( * ) PLANE_ANGLE_UNIT ( ) SI_UNIT ( $, .RADIAN. ) );
#71 = ORIENTED_EDGE ( 'NONE', *, *, #141, .T. ) ;
#72 = LOCAL_TIME ( 15, 6, 49.00000000000000000, #150 ) ;
#73 = PERSON_AND_ORGANIZATION ( #154, #43 ) ;
#74 = ORIENTED_EDGE ( 'NONE', *, *, #197, .F. ) ;
#75 = APPROVAL_STATUS ( 'not_yet_approved' ) ;
#76 = ADVANCED_FACE ( 'NONE', ( #20 ), #16, .F. ) ;
#77 = ORIENTED_EDGE ( 'NONE', *, *, #172, .F. ) ;
#78 = DATE_TIME_ROLE ( 'creation_date' ) ;
#79 = CC_DESIGN_SECURITY_CLASSIFICATION ( #142, ( #93 ) ) ;
#80 = CC_DESIGN_APPROVAL ( #8, ( #93 ) ) ;
#81 = PERSON_AND_ORGANIZATION_ROLE ( 'creator' ) ;
#82 = APPROVAL_ROLE ( '' ) ;
#83 = LOCAL_TIME ( 15, 6, 49.00000000000000000, #135 ) ;
#84 = APPROVAL_STATUS ( 'not_yet_approved' ) ;
#85 = DIMENSIONAL_EXPONENTS ( 1.000000000000000000, 0.0000000000000000000, 0.0000000000000000000, 0.0000000000000000000, 0.0000000000000000000, 0.0000000000000000000, 0.0000000000000000000 ) ;
#86 = DIRECTION ( 'NONE',  ( 3.491481338843133000E-015, 0.0000000000000000000, -1.000000000000000000 ) ) ;
#87 = APPLICATION_PROTOCOL_DEFINITION ( 'international standard', 'config_control_design', 1994, #89 ) ;
#88 = LINE ( 'NONE', #187, #157 ) ;
#89 = APPLICATION_CONTEXT ( 'configuration controlled 3d designs of mechanical parts and assemblies' ) ;
#90 = CC_DESIGN_PERSON_AND_ORGANIZATION_ASSIGNMENT ( #19, #81, ( #158 ) ) ;
#91 = DIRECTION ( 'NONE',  ( 1.000000000000000000, 0.0000000000000000000, 3.491481338843133400E-015 ) ) ;
#92 = DIRECTION ( 'NONE',  ( -0.0000000000000000000, 0.0000000000000000000, -1.000000000000000000 ) ) ;
#93 = PRODUCT_DEFINITION_FORMATION_WITH_SPECIFIED_SOURCE ( 'ANY', '', #27, .NOT_KNOWN. ) ;
#94 = CARTESIAN_POINT ( 'NONE',  ( -3.367217263643854700E-031, -1.575000000000000000, 9.644093543285405500E-017 ) ) ;
#95 = DIRECTION ( 'NONE',  ( 0.0000000000000000000, 0.0000000000000000000, 1.000000000000000000 ) ) ;
#96 = AXIS2_PLACEMENT_3D ( 'NONE', #59, #53, #32 ) ;
#97 = PERSON_AND_ORGANIZATION ( #154, #43 ) ;
#98 = APPLICATION_CONTEXT ( 'configuration controlled 3d designs of mechanical parts and assemblies' ) ;
#99 = CLOSED_SHELL ( 'NONE', ( #17, #114, #76, #165, #181 ) ) ;
#100 = EDGE_CURVE ( 'NONE', #33, #21, #129, .T. ) ;
#101 = DATE_AND_TIME ( #190, #173 ) ;
#102 = DIRECTION ( 'NONE',  ( -1.000000000000000000, 0.0000000000000000000, 0.0000000000000000000 ) ) ;
#103 = LOCAL_TIME ( 15, 6, 49.00000000000000000, #139 ) ;
#104 = AXIS2_PLACEMENT_3D ( 'NONE', #18, #120, #60 ) ;
#105 = CARTESIAN_POINT ( 'NONE',  ( -5.237222008264700000E-015, -1.574999999999999700, 1.500000000000000200 ) ) ;
#106 = DIRECTION ( 'NONE',  ( -0.0000000000000000000, 1.000000000000000000, -0.0000000000000000000 ) ) ;
#107 = DIRECTION ( 'NONE',  ( 1.000000000000000000, 0.0000000000000000000, 0.0000000000000000000 ) ) ;
#108 = CALENDAR_DATE ( 2017, 16, 1 ) ;
#109 = CARTESIAN_POINT ( 'NONE',  ( 0.0000000000000000000, -1.574999999999999700, 0.0000000000000000000 ) ) ;
#110 = DIRECTION ( 'NONE',  ( -1.000000000000000000, 0.0000000000000000000, 0.0000000000000000000 ) ) ;
#111 = CC_DESIGN_PERSON_AND_ORGANIZATION_ASSIGNMENT ( #186, #54, ( #93 ) ) ;
#112 = ORIENTED_EDGE ( 'NONE', *, *, #213, .F. ) ;
#113 = PERSON_AND_ORGANIZATION ( #154, #43 ) ;
#114 = ADVANCED_FACE ( 'NONE', ( #164 ), #52, .F. ) ;
#115 = CALENDAR_DATE ( 2017, 16, 1 ) ;
#116 = PLANE ( 'NONE',  #28 ) ;
#117 = APPROVAL_PERSON_ORGANIZATION ( #73, #8, #67 ) ;
#118 = ORIENTED_EDGE ( 'NONE', *, *, #155, .F. ) ;
#119 = CARTESIAN_POINT ( 'NONE',  ( -3.367217263643854700E-031, -1.575000000000000000, 9.644093543285405500E-017 ) ) ;
#120 = DIRECTION ( 'NONE',  ( -0.0000000000000000000, -0.0000000000000000000, -1.000000000000000000 ) ) ;
#121 = DIRECTION ( 'NONE',  ( -3.491481338843133000E-015, 0.0000000000000000000, 1.000000000000000000 ) ) ;
#122 = CARTESIAN_POINT ( 'NONE',  ( 1.500000000000000200, -1.574999999999999700, 0.0000000000000000000 ) ) ;
#123 = APPROVAL_DATE_TIME ( #163, #8 ) ;
#124 = CARTESIAN_POINT ( 'NONE',  ( 0.0000000000000000000, 0.0000000000000000000, 0.0000000000000000000 ) ) ;
#125 = CIRCLE ( 'NONE', #147, 1.575000000000000000 ) ;
#126 = ORIENTED_EDGE ( 'NONE', *, *, #191, .F. ) ;
#127 = CARTESIAN_POINT ( 'NONE',  ( -5.237222008264700000E-015, -1.574999999999999700, 1.500000000000000200 ) ) ;
#128 = EDGE_CURVE ( 'NONE', #21, #24, #175, .T. ) ;
#129 = LINE ( 'NONE', #153, #149 ) ;
#130 = CC_DESIGN_APPROVAL ( #29, ( #142 ) ) ;
#131 = ORIENTED_EDGE ( 'NONE', *, *, #168, .T. ) ;
#132 = PERSON_AND_ORGANIZATION ( #154, #43 ) ;
#133 = CARTESIAN_POINT ( 'NONE',  ( 9.644093543285405500E-017, -1.575000000000000000, 0.0000000000000000000 ) ) ;
#134 = AXIS2_PLACEMENT_3D ( 'NONE', #105, #144, #1 ) ;
#135 = COORDINATED_UNIVERSAL_TIME_OFFSET ( 8, 0, .BEHIND. ) ;
#136 = MECHANICAL_CONTEXT ( 'NONE', #98, 'mechanical' ) ;
#137 = LINE ( 'NONE', #127, #58 ) ;
#138 = DIRECTION ( 'NONE',  ( 3.491481338843133000E-015, 0.0000000000000000000, -1.000000000000000000 ) ) ;
#139 = COORDINATED_UNIVERSAL_TIME_OFFSET ( 8, 0, .BEHIND. ) ;
#140 = EDGE_LOOP ( 'NONE', ( #206, #74, #126 ) ) ;
#141 = EDGE_CURVE ( 'NONE', #35, #24, #125, .T. ) ;
#142 = SECURITY_CLASSIFICATION ( '', '', #40 ) ;
#143 = VERTEX_POINT ( 'NONE', #199 ) ;
#144 = DIRECTION ( 'NONE',  ( -0.0000000000000000000, 1.000000000000000000, 0.0000000000000000000 ) ) ;
#145 = FACE_OUTER_BOUND ( 'NONE', #212, .T. ) ;
#146 = AXIS2_PLACEMENT_3D ( 'NONE', #201, #49, #86 ) ;
#147 = AXIS2_PLACEMENT_3D ( 'NONE', #119, #174, #171 ) ;
#148 = ORIENTED_EDGE ( 'NONE', *, *, #100, .T. ) ;
#149 = VECTOR ( 'NONE', #185, 39.37007874015748100 ) ;
#150 = COORDINATED_UNIVERSAL_TIME_OFFSET ( 8, 0, .BEHIND. ) ;
#151 = ADVANCED_BREP_SHAPE_REPRESENTATION ( '350505', ( #56, #11 ), #26 ) ;
#152 = APPROVAL_PERSON_ORGANIZATION ( #132, #170, #82 ) ;
#153 = CARTESIAN_POINT ( 'NONE',  ( 1.500000000000000200, -1.574999999999999700, 0.0000000000000000000 ) ) ;
#154 = PERSON ( 'UNSPECIFIED', 'UNSPECIFIED', 'UNSPECIFIED', ('UNSPECIFIED'), ('UNSPECIFIED'), ('UNSPECIFIED') ) ;
#155 = EDGE_CURVE ( 'NONE', #24, #51, #88, .T. ) ;
#156 = APPLICATION_PROTOCOL_DEFINITION ( 'international standard', 'config_control_design', 1994, #98 ) ;
#157 = VECTOR ( 'NONE', #209, 39.37007874015748100 ) ;
#158 = PRODUCT_DEFINITION ( 'UNKNOWN', '', #93, #180 ) ;
#159 = CC_DESIGN_APPROVAL ( #170, ( #158 ) ) ;
#160 = APPROVAL_DATE_TIME ( #101, #170 ) ;
#161 = CIRCLE ( 'NONE', #208, 1.500000000000000200 ) ;
#162 = APPROVAL_PERSON_ORGANIZATION ( #50, #29, #13 ) ;
#163 = DATE_AND_TIME ( #108, #72 ) ;
#164 = FACE_OUTER_BOUND ( 'NONE', #203, .T. ) ;
#165 = ADVANCED_FACE ( 'NONE', ( #12 ), #38, .F. ) ;
#166 = AXIS2_PLACEMENT_3D ( 'NONE', #192, #6, #138 ) ;
#167 = DIRECTION ( 'NONE',  ( 3.491481338843133000E-015, 0.0000000000000000000, -1.000000000000000000 ) ) ;
#168 = EDGE_CURVE ( 'NONE', #143, #35, #137, .T. ) ;
#169 = DATE_AND_TIME ( #210, #10 ) ;
#170 = APPROVAL ( #84, 'UNSPECIFIED' ) ;
#171 = DIRECTION ( 'NONE',  ( 3.491481338843133400E-015, 0.0000000000000000000, -1.000000000000000000 ) ) ;
#172 = EDGE_CURVE ( 'NONE', #35, #21, #207, .T. ) ;
#173 = LOCAL_TIME ( 15, 6, 49.00000000000000000, #176 ) ;
#174 = DIRECTION ( 'NONE',  ( -1.000000000000000000, 0.0000000000000000000, -3.491481338843133400E-015 ) ) ;
#175 = CIRCLE ( 'NONE', #198, 1.575000000000000000 ) ;
#176 = COORDINATED_UNIVERSAL_TIME_OFFSET ( 8, 0, .BEHIND. ) ;
#177 = DIRECTION ( 'NONE',  ( 1.000000000000000000, 0.0000000000000000000, 3.491481338843133400E-015 ) ) ;
#178 = CC_DESIGN_PERSON_AND_ORGANIZATION_ASSIGNMENT ( #4, #36, ( #142 ) ) ;
#179 =( NAMED_UNIT ( * ) SI_UNIT ( $, .STERADIAN. ) SOLID_ANGLE_UNIT ( ) );
#180 = DESIGN_CONTEXT ( 'detailed design', #89, 'design' ) ;
#181 = ADVANCED_FACE ( 'NONE', ( #145 ), #116, .T. ) ;
#182 = CC_DESIGN_PERSON_AND_ORGANIZATION_ASSIGNMENT ( #97, #188, ( #27 ) ) ;
#183 = COORDINATED_UNIVERSAL_TIME_OFFSET ( 8, 0, .BEHIND. ) ;
#184 =( LENGTH_UNIT ( ) NAMED_UNIT ( * ) SI_UNIT ( $, .METRE. ) );
#185 = DIRECTION ( 'NONE',  ( 1.000000000000000000, 0.0000000000000000000, 0.0000000000000000000 ) ) ;
#186 = PERSON_AND_ORGANIZATION ( #154, #43 ) ;
#187 = CARTESIAN_POINT ( 'NONE',  ( 0.0000000000000000000, 0.0000000000000000000, 0.0000000000000000000 ) ) ;
#188 = PERSON_AND_ORGANIZATION_ROLE ( 'design_owner' ) ;
#189 = AXIS2_PLACEMENT_3D ( 'NONE', #109, #106, #95 ) ;
#190 = CALENDAR_DATE ( 2017, 16, 1 ) ;
#191 = EDGE_CURVE ( 'NONE', #51, #143, #161, .T. ) ;
#192 = CARTESIAN_POINT ( 'NONE',  ( -3.367217263643854700E-031, -1.575000000000000000, 9.644093543285405500E-017 ) ) ;
#193 = DIRECTION ( 'NONE',  ( 0.0000000000000000000, 0.0000000000000000000, 1.000000000000000000 ) ) ;
#194 = ORIENTED_EDGE ( 'NONE', *, *, #128, .F. ) ;
#195 = CC_DESIGN_DATE_AND_TIME_ASSIGNMENT ( #31, #23, ( #142 ) ) ;
#196 = CARTESIAN_POINT ( 'NONE',  ( 9.644093543285405500E-017, -1.575000000000000000, 0.0000000000000000000 ) ) ;
#197 = EDGE_CURVE ( 'NONE', #143, #33, #2, .T. ) ;
#198 = AXIS2_PLACEMENT_3D ( 'NONE', #196, #193, #102 ) ;
#199 = CARTESIAN_POINT ( 'NONE',  ( -5.237222008264700000E-015, -1.574999999999999700, 1.500000000000000200 ) ) ;
#200 = PRODUCT_RELATED_PRODUCT_CATEGORY ( 'detail', '', ( #27 ) ) ;
#201 = CARTESIAN_POINT ( 'NONE',  ( -3.367217263643854700E-031, -1.575000000000000000, 9.644093543285405500E-017 ) ) ;
#202 = ORIENTED_EDGE ( 'NONE', *, *, #100, .F. ) ;
#203 = EDGE_LOOP ( 'NONE', ( #25, #148, #77, #15 ) ) ;
#204 = CARTESIAN_POINT ( 'NONE',  ( -3.367217263643854700E-031, -1.575000000000000000, 9.644093543285405500E-017 ) ) ;
#205 = CARTESIAN_POINT ( 'NONE',  ( 1.575000000000000000, -1.574999999999999700, 0.0000000000000000000 ) ) ;
#206 = ORIENTED_EDGE ( 'NONE', *, *, #213, .T. ) ;
#207 = CIRCLE ( 'NONE', #189, 1.575000000000000000 ) ;
#208 = AXIS2_PLACEMENT_3D ( 'NONE', #94, #91, #167 ) ;
#209 = DIRECTION ( 'NONE',  ( 6.739837425642104400E-030, -1.000000000000000000, -1.930366160248555200E-015 ) ) ;
#210 = CALENDAR_DATE ( 2017, 16, 1 ) ;
#211 = APPROVAL_DATE_TIME ( #169, #29 ) ;
#212 = EDGE_LOOP ( 'NONE', ( #194, #202, #112, #118 ) ) ;
#213 = EDGE_CURVE ( 'NONE', #51, #33, #9, .T. ) ;
ENDSEC;
END-ISO-10303-21;
