ISO-10303-21;
HEADER;
FILE_DESCRIPTION (( 'STEP AP203' ),
    '1' );
FILE_NAME ('350504.STEP',
    '2017-01-16T23:06:58',
    ( 'temp' ),
    ( '' ),
    'SwSTEP 2.0',
    'SolidWorks 2016',
    '' );
FILE_SCHEMA (( 'CONFIG_CONTROL_DESIGN' ));
ENDSEC;

DATA;
#1 = APPLICATION_CONTEXT ( 'configuration controlled 3d designs of mechanical parts and assemblies' ) ;
#2 = EDGE_CURVE ( 'NONE', #148, #44, #107, .T. ) ;
#3 = CC_DESIGN_PERSON_AND_ORGANIZATION_ASSIGNMENT ( #53, #151, ( #138 ) ) ;
#4 = DIRECTION ( 'NONE',  ( 1.000000000000000000, 0.0000000000000000000, 0.0000000000000000000 ) ) ;
#5 = ORIENTED_EDGE ( 'NONE', *, *, #202, .T. ) ;
#6 = AXIS2_PLACEMENT_3D ( 'NONE', #178, #179, #153 ) ;
#7 = AXIS2_PLACEMENT_3D ( 'NONE', #164, #68, #210 ) ;
#8 = LOCAL_TIME ( 15, 6, 58.00000000000000000, #88 ) ;
#9 = APPROVAL_ROLE ( '' ) ;
#10 = PERSON_AND_ORGANIZATION ( #156, #206 ) ;
#11 = EDGE_LOOP ( 'NONE', ( #127, #83, #89, #145 ) ) ;
#12 = APPROVAL ( #119, 'UNSPECIFIED' ) ;
#13 = COORDINATED_UNIVERSAL_TIME_OFFSET ( 8, 0, .BEHIND. ) ;
#14 = ORIENTED_EDGE ( 'NONE', *, *, #101, .T. ) ;
#15 = APPROVAL_STATUS ( 'not_yet_approved' ) ;
#16 = APPLICATION_CONTEXT ( 'configuration controlled 3d designs of mechanical parts and assemblies' ) ;
#17 = CC_DESIGN_APPROVAL ( #12, ( #138 ) ) ;
#18 = CARTESIAN_POINT ( 'NONE',  ( 1.500000000000000200, -1.559999999999999800, 0.0000000000000000000 ) ) ;
#19 = SPHERICAL_SURFACE ( 'NONE', #85, 1.560000000000000100 ) ;
#20 = EDGE_LOOP ( 'NONE', ( #66, #14, #72, #62 ) ) ;
#21 = APPROVAL_STATUS ( 'not_yet_approved' ) ;
#22 = MECHANICAL_CONTEXT ( 'NONE', #1, 'mechanical' ) ;
#23 = AXIS2_PLACEMENT_3D ( 'NONE', #154, #33, #39 ) ;
#24 = DATE_AND_TIME ( #29, #38 ) ;
#25 = CIRCLE ( 'NONE', #204, 1.500000000000000200 ) ;
#26 = LENGTH_MEASURE_WITH_UNIT ( LENGTH_MEASURE( 0.02539999999999999900 ), #133 );
#27 = DIRECTION ( 'NONE',  ( -1.000000000000000000, 0.0000000000000000000, -3.491481338843133400E-015 ) ) ;
#28 = PRODUCT ( '350504', '350504', '', ( #22 ) ) ;
#29 = CALENDAR_DATE ( 2017, 16, 1 ) ;
#30 = DESIGN_CONTEXT ( 'detailed design', #16, 'design' ) ;
#31 = PRODUCT_DEFINITION_SHAPE ( 'NONE', 'NONE',  #123 ) ;
#32 =( NAMED_UNIT ( * ) PLANE_ANGLE_UNIT ( ) SI_UNIT ( $, .RADIAN. ) );
#33 = DIRECTION ( 'NONE',  ( -0.0000000000000000000, 1.000000000000000000, -0.0000000000000000000 ) ) ;
#34 = APPROVAL_ROLE ( '' ) ;
#35 = AXIS2_PLACEMENT_3D ( 'NONE', #92, #78, #36 ) ;
#36 = DIRECTION ( 'NONE',  ( 3.491481338843133000E-015, 0.0000000000000000000, -1.000000000000000000 ) ) ;
#37 = AXIS2_PLACEMENT_3D ( 'NONE', #64, #211, #205 ) ;
#38 = LOCAL_TIME ( 15, 6, 58.00000000000000000, #42 ) ;
#39 = DIRECTION ( 'NONE',  ( 0.0000000000000000000, 0.0000000000000000000, 1.000000000000000000 ) ) ;
#40 = CARTESIAN_POINT ( 'NONE',  ( 5.086946805075798400E-031, -0.05999999999999990800, -1.456959471180019700E-016 ) ) ;
#41 = CARTESIAN_POINT ( 'NONE',  ( 0.0000000000000000000, 0.0000000000000000000, 0.0000000000000000000 ) ) ;
#42 = COORDINATED_UNIVERSAL_TIME_OFFSET ( 8, 0, .BEHIND. ) ;
#43 = PERSON_AND_ORGANIZATION ( #156, #206 ) ;
#44 = VERTEX_POINT ( 'NONE', #183 ) ;
#45 = ADVANCED_FACE ( 'NONE', ( #188 ), #201, .T. ) ;
#46 = PERSON_AND_ORGANIZATION ( #156, #206 ) ;
#47 = CARTESIAN_POINT ( 'NONE',  ( -3.335148527799627700E-031, -1.560000000000000100, 9.552245033349354800E-017 ) ) ;
#48 = ORIENTED_EDGE ( 'NONE', *, *, #213, .F. ) ;
#49 = PERSON_AND_ORGANIZATION ( #156, #206 ) ;
#50 = DATE_TIME_ROLE ( 'creation_date' ) ;
#51 = COORDINATED_UNIVERSAL_TIME_OFFSET ( 8, 0, .BEHIND. ) ;
#52 = DIRECTION ( 'NONE',  ( 0.0000000000000000000, 0.0000000000000000000, 1.000000000000000000 ) ) ;
#53 = PERSON_AND_ORGANIZATION ( #156, #206 ) ;
#54 = CC_DESIGN_PERSON_AND_ORGANIZATION_ASSIGNMENT ( #49, #172, ( #138 ) ) ;
#55 = DIRECTION ( 'NONE',  ( -0.0000000000000000000, 1.000000000000000000, 0.0000000000000000000 ) ) ;
#56 = CIRCLE ( 'NONE', #6, 1.560000000000000100 ) ;
#57 = APPROVAL_DATE_TIME ( #63, #12 ) ;
#58 = DIRECTION ( 'NONE',  ( 0.0000000000000000000, 0.0000000000000000000, 1.000000000000000000 ) ) ;
#59 = DIRECTION ( 'NONE',  ( -3.491481338843133400E-015, 0.0000000000000000000, 1.000000000000000000 ) ) ;
#60 = APPLICATION_PROTOCOL_DEFINITION ( 'international standard', 'config_control_design', 1994, #16 ) ;
#61 = SHAPE_DEFINITION_REPRESENTATION ( #31, #79 ) ;
#62 = ORIENTED_EDGE ( 'NONE', *, *, #2, .T. ) ;
#63 = DATE_AND_TIME ( #69, #76 ) ;
#64 = CARTESIAN_POINT ( 'NONE',  ( 9.552245033349354800E-017, -1.560000000000000100, 0.0000000000000000000 ) ) ;
#65 = CALENDAR_DATE ( 2017, 16, 1 ) ;
#66 = ORIENTED_EDGE ( 'NONE', *, *, #213, .T. ) ;
#67 = CIRCLE ( 'NONE', #37, 1.560000000000000100 ) ;
#68 = DIRECTION ( 'NONE',  ( -0.0000000000000000000, -0.0000000000000000000, -1.000000000000000000 ) ) ;
#69 = CALENDAR_DATE ( 2017, 16, 1 ) ;
#70 = LINE ( 'NONE', #18, #187 ) ;
#71 = ORIENTED_EDGE ( 'NONE', *, *, #143, .T. ) ;
#72 = ORIENTED_EDGE ( 'NONE', *, *, #209, .T. ) ;
#73 = COORDINATED_UNIVERSAL_TIME_OFFSET ( 8, 0, .BEHIND. ) ;
#74 = DIRECTION ( 'NONE',  ( 3.491481338843133400E-015, 0.0000000000000000000, -1.000000000000000000 ) ) ;
#75 = ORIENTED_EDGE ( 'NONE', *, *, #2, .F. ) ;
#76 = LOCAL_TIME ( 15, 6, 58.00000000000000000, #73 ) ;
#77 = APPROVAL_PERSON_ORGANIZATION ( #139, #12, #34 ) ;
#78 = DIRECTION ( 'NONE',  ( 1.000000000000000000, 0.0000000000000000000, 3.491481338843133000E-015 ) ) ;
#79 = ADVANCED_BREP_SHAPE_REPRESENTATION ( '350504', ( #194, #94 ), #184 ) ;
#80 = PERSON_AND_ORGANIZATION ( #156, #206 ) ;
#81 = PERSON_AND_ORGANIZATION_ROLE ( 'creator' ) ;
#82 = CARTESIAN_POINT ( 'NONE',  ( 0.0000000000000000000, 0.0000000000000000000, 0.0000000000000000000 ) ) ;
#83 = ORIENTED_EDGE ( 'NONE', *, *, #143, .F. ) ;
#84 = APPROVAL_ROLE ( '' ) ;
#85 = AXIS2_PLACEMENT_3D ( 'NONE', #112, #86, #59 ) ;
#86 = DIRECTION ( 'NONE',  ( 1.000000000000000000, 0.0000000000000000000, 3.491481338843133400E-015 ) ) ;
#87 = ORIENTED_EDGE ( 'NONE', *, *, #209, .F. ) ;
#88 = COORDINATED_UNIVERSAL_TIME_OFFSET ( 8, 0, .BEHIND. ) ;
#89 = ORIENTED_EDGE ( 'NONE', *, *, #202, .F. ) ;
#90 = LOCAL_TIME ( 15, 6, 58.00000000000000000, #13 ) ;
#91 = CARTESIAN_POINT ( 'NONE',  ( 1.500000000000000200, -1.559999999999999800, 0.0000000000000000000 ) ) ;
#92 = CARTESIAN_POINT ( 'NONE',  ( -3.335148527799627700E-031, -1.560000000000000100, 9.552245033349354800E-017 ) ) ;
#93 = ORIENTED_EDGE ( 'NONE', *, *, #197, .T. ) ;
#94 = AXIS2_PLACEMENT_3D ( 'NONE', #41, #52, #4 ) ;
#95 = CALENDAR_DATE ( 2017, 16, 1 ) ;
#96 = CARTESIAN_POINT ( 'NONE',  ( -5.237222008264700000E-015, -1.559999999999999800, 1.500000000000000200 ) ) ;
#97 = LOCAL_TIME ( 15, 6, 58.00000000000000000, #51 ) ;
#98 = EDGE_CURVE ( 'NONE', #115, #105, #67, .T. ) ;
#99 = DIRECTION ( 'NONE',  ( -3.491481338843133000E-015, 0.0000000000000000000, 1.000000000000000000 ) ) ;
#100 = CARTESIAN_POINT ( 'NONE',  ( 0.0000000000000000000, 0.0000000000000000000, 0.0000000000000000000 ) ) ;
#101 = EDGE_CURVE ( 'NONE', #105, #196, #190, .T. ) ;
#102 = CC_DESIGN_DATE_AND_TIME_ASSIGNMENT ( #171, #50, ( #123 ) ) ;
#103 = ADVANCED_FACE ( 'NONE', ( #165 ), #122, .F. ) ;
#104 = AXIS2_PLACEMENT_3D ( 'NONE', #135, #203, #195 ) ;
#105 = VERTEX_POINT ( 'NONE', #100 ) ;
#106 = APPLICATION_PROTOCOL_DEFINITION ( 'international standard', 'config_control_design', 1994, #1 ) ;
#107 = LINE ( 'NONE', #150, #117 ) ;
#108 = ORIENTED_EDGE ( 'NONE', *, *, #193, .T. ) ;
#109 = CC_DESIGN_DATE_AND_TIME_ASSIGNMENT ( #24, #124, ( #141 ) ) ;
#110 = FACE_OUTER_BOUND ( 'NONE', #207, .T. ) ;
#111 = CALENDAR_DATE ( 2017, 16, 1 ) ;
#112 = CARTESIAN_POINT ( 'NONE',  ( -3.335148527799627700E-031, -1.560000000000000100, 9.552245033349354800E-017 ) ) ;
#113 = ADVANCED_FACE ( 'NONE', ( #110 ), #149, .F. ) ;
#114 = PLANE ( 'NONE',  #152 ) ;
#115 = VERTEX_POINT ( 'NONE', #157 ) ;
#116 = DATE_AND_TIME ( #111, #8 ) ;
#117 = VECTOR ( 'NONE', #99, 39.37007874015748100 ) ;
#118 = CIRCLE ( 'NONE', #23, 1.500000000000000200 ) ;
#119 = APPROVAL_STATUS ( 'not_yet_approved' ) ;
#120 = EDGE_LOOP ( 'NONE', ( #93, #71, #144, #75 ) ) ;
#121 = PERSON_AND_ORGANIZATION ( #156, #206 ) ;
#122 = PLANE ( 'NONE',  #35 ) ;
#123 = PRODUCT_DEFINITION ( 'UNKNOWN', '', #138, #30 ) ;
#124 = DATE_TIME_ROLE ( 'classification_date' ) ;
#125 = PRODUCT_RELATED_PRODUCT_CATEGORY ( 'detail', '', ( #28 ) ) ;
#126 = CARTESIAN_POINT ( 'NONE',  ( -3.335148527799627700E-031, -1.560000000000000100, 9.552245033349354800E-017 ) ) ;
#127 = ORIENTED_EDGE ( 'NONE', *, *, #98, .F. ) ;
#128 = CC_DESIGN_APPROVAL ( #181, ( #141 ) ) ;
#129 = CC_DESIGN_PERSON_AND_ORGANIZATION_ASSIGNMENT ( #46, #81, ( #123 ) ) ;
#130 = AXIS2_PLACEMENT_3D ( 'NONE', #126, #27, #74 ) ;
#131 = CLOSED_SHELL ( 'NONE', ( #192, #212, #113, #103, #45 ) ) ;
#132 = APPROVAL_DATE_TIME ( #140, #181 ) ;
#133 =( LENGTH_UNIT ( ) NAMED_UNIT ( * ) SI_UNIT ( $, .METRE. ) );
#134 = ORIENTED_EDGE ( 'NONE', *, *, #98, .T. ) ;
#135 = CARTESIAN_POINT ( 'NONE',  ( -3.335148527799627700E-031, -1.560000000000000100, 9.552245033349354800E-017 ) ) ;
#136 = DIRECTION ( 'NONE',  ( 1.000000000000000000, 0.0000000000000000000, 3.491481338843133400E-015 ) ) ;
#137 = UNCERTAINTY_MEASURE_WITH_UNIT (LENGTH_MEASURE( 1.000000000000000100E-005 ), #173, 'distance_accuracy_value', 'NONE');
#138 = PRODUCT_DEFINITION_FORMATION_WITH_SPECIFIED_SOURCE ( 'ANY', '', #28, .NOT_KNOWN. ) ;
#139 = PERSON_AND_ORGANIZATION ( #156, #206 ) ;
#140 = DATE_AND_TIME ( #95, #97 ) ;
#141 = SECURITY_CLASSIFICATION ( '', '', #198 ) ;
#142 = DIRECTION ( 'NONE',  ( 3.491481338843133000E-015, 0.0000000000000000000, -1.000000000000000000 ) ) ;
#143 = EDGE_CURVE ( 'NONE', #182, #115, #70, .T. ) ;
#144 = ORIENTED_EDGE ( 'NONE', *, *, #193, .F. ) ;
#145 = ORIENTED_EDGE ( 'NONE', *, *, #101, .F. ) ;
#146 = CIRCLE ( 'NONE', #7, 1.500000000000000200 ) ;
#147 = CC_DESIGN_SECURITY_CLASSIFICATION ( #141, ( #138 ) ) ;
#148 = VERTEX_POINT ( 'NONE', #166 ) ;
#149 = SPHERICAL_SURFACE ( 'NONE', #104, 1.500000000000000200 ) ;
#150 = CARTESIAN_POINT ( 'NONE',  ( -5.237222008264700000E-015, -1.559999999999999800, 1.500000000000000200 ) ) ;
#151 = PERSON_AND_ORGANIZATION_ROLE ( 'creator' ) ;
#152 = AXIS2_PLACEMENT_3D ( 'NONE', #96, #55, #58 ) ;
#153 = DIRECTION ( 'NONE',  ( 0.0000000000000000000, 0.0000000000000000000, 1.000000000000000000 ) ) ;
#154 = CARTESIAN_POINT ( 'NONE',  ( 0.0000000000000000000, -1.559999999999999800, 0.0000000000000000000 ) ) ;
#155 = APPROVAL ( #21, 'UNSPECIFIED' ) ;
#156 = PERSON ( 'UNSPECIFIED', 'UNSPECIFIED', 'UNSPECIFIED', ('UNSPECIFIED'), ('UNSPECIFIED'), ('UNSPECIFIED') ) ;
#157 = CARTESIAN_POINT ( 'NONE',  ( 1.560000000000000100, -1.559999999999999800, 0.0000000000000000000 ) ) ;
#158 = APPROVAL_DATE_TIME ( #116, #155 ) ;
#159 = APPROVAL_PERSON_ORGANIZATION ( #10, #155, #84 ) ;
#160 = PERSON_AND_ORGANIZATION_ROLE ( 'design_owner' ) ;
#161 = CIRCLE ( 'NONE', #130, 1.560000000000000100 ) ;
#162 = FACE_OUTER_BOUND ( 'NONE', #120, .T. ) ;
#163 = DIMENSIONAL_EXPONENTS ( 1.000000000000000000, 0.0000000000000000000, 0.0000000000000000000, 0.0000000000000000000, 0.0000000000000000000, 0.0000000000000000000, 0.0000000000000000000 ) ;
#164 = CARTESIAN_POINT ( 'NONE',  ( 9.552245033349354800E-017, -1.560000000000000100, 0.0000000000000000000 ) ) ;
#165 = FACE_OUTER_BOUND ( 'NONE', #20, .T. ) ;
#166 = CARTESIAN_POINT ( 'NONE',  ( -5.237222008264700000E-015, -1.559999999999999800, 1.500000000000000200 ) ) ;
#167 = CC_DESIGN_PERSON_AND_ORGANIZATION_ASSIGNMENT ( #43, #200, ( #141 ) ) ;
#168 = DIRECTION ( 'NONE',  ( 8.478244675126344800E-030, -1.000000000000000000, -2.428265785300036800E-015 ) ) ;
#169 = CC_DESIGN_APPROVAL ( #155, ( #123 ) ) ;
#170 = VECTOR ( 'NONE', #168, 39.37007874015748100 ) ;
#171 = DATE_AND_TIME ( #65, #90 ) ;
#172 = PERSON_AND_ORGANIZATION_ROLE ( 'design_supplier' ) ;
#173 =( CONVERSION_BASED_UNIT ( 'INCH', #26 ) LENGTH_UNIT ( ) NAMED_UNIT ( #163 ) );
#174 = AXIS2_PLACEMENT_3D ( 'NONE', #176, #189, #185 ) ;
#175 = EDGE_LOOP ( 'NONE', ( #108, #134, #48 ) ) ;
#176 = CARTESIAN_POINT ( 'NONE',  ( 9.552245033349354800E-017, -1.560000000000000100, 0.0000000000000000000 ) ) ;
#177 = APPROVAL_PERSON_ORGANIZATION ( #121, #181, #9 ) ;
#178 = CARTESIAN_POINT ( 'NONE',  ( 0.0000000000000000000, -1.559999999999999800, 0.0000000000000000000 ) ) ;
#179 = DIRECTION ( 'NONE',  ( -0.0000000000000000000, 1.000000000000000000, -0.0000000000000000000 ) ) ;
#180 =( NAMED_UNIT ( * ) SI_UNIT ( $, .STERADIAN. ) SOLID_ANGLE_UNIT ( ) );
#181 = APPROVAL ( #15, 'UNSPECIFIED' ) ;
#182 = VERTEX_POINT ( 'NONE', #91 ) ;
#183 = CARTESIAN_POINT ( 'NONE',  ( -5.446710888595288300E-015, -1.559999999999999800, 1.560000000000000100 ) ) ;
#184 =( GEOMETRIC_REPRESENTATION_CONTEXT ( 3 ) GLOBAL_UNCERTAINTY_ASSIGNED_CONTEXT ( ( #137 ) ) GLOBAL_UNIT_ASSIGNED_CONTEXT ( ( #173, #32, #180 ) ) REPRESENTATION_CONTEXT ( 'NONE', 'WORKASPACE' ) );
#185 = DIRECTION ( 'NONE',  ( -1.000000000000000000, 0.0000000000000000000, 0.0000000000000000000 ) ) ;
#186 = ORIENTED_EDGE ( 'NONE', *, *, #197, .F. ) ;
#187 = VECTOR ( 'NONE', #191, 39.37007874015748100 ) ;
#188 = FACE_OUTER_BOUND ( 'NONE', #11, .T. ) ;
#189 = DIRECTION ( 'NONE',  ( -0.0000000000000000000, 0.0000000000000000000, -1.000000000000000000 ) ) ;
#190 = LINE ( 'NONE', #82, #170 ) ;
#191 = DIRECTION ( 'NONE',  ( 1.000000000000000000, 0.0000000000000000000, 0.0000000000000000000 ) ) ;
#192 = ADVANCED_FACE ( 'NONE', ( #208 ), #19, .T. ) ;
#193 = EDGE_CURVE ( 'NONE', #44, #115, #56, .T. ) ;
#194 = MANIFOLD_SOLID_BREP ( 'Revolve1', #131 ) ;
#195 = DIRECTION ( 'NONE',  ( 3.491481338843133000E-015, 0.0000000000000000000, -1.000000000000000000 ) ) ;
#196 = VERTEX_POINT ( 'NONE', #40 ) ;
#197 = EDGE_CURVE ( 'NONE', #148, #182, #118, .T. ) ;
#198 = SECURITY_CLASSIFICATION_LEVEL ( 'unclassified' ) ;
#199 = CC_DESIGN_PERSON_AND_ORGANIZATION_ASSIGNMENT ( #80, #160, ( #28 ) ) ;
#200 = PERSON_AND_ORGANIZATION_ROLE ( 'classification_officer' ) ;
#201 = PLANE ( 'NONE',  #174 ) ;
#202 = EDGE_CURVE ( 'NONE', #196, #182, #146, .T. ) ;
#203 = DIRECTION ( 'NONE',  ( -1.000000000000000000, 0.0000000000000000000, -3.491481338843133000E-015 ) ) ;
#204 = AXIS2_PLACEMENT_3D ( 'NONE', #47, #136, #142 ) ;
#205 = DIRECTION ( 'NONE',  ( -1.000000000000000000, 0.0000000000000000000, 0.0000000000000000000 ) ) ;
#206 = ORGANIZATION ( 'UNSPECIFIED', 'UNSPECIFIED', '' ) ;
#207 = EDGE_LOOP ( 'NONE', ( #5, #186, #87 ) ) ;
#208 = FACE_OUTER_BOUND ( 'NONE', #175, .T. ) ;
#209 = EDGE_CURVE ( 'NONE', #196, #148, #25, .T. ) ;
#210 = DIRECTION ( 'NONE',  ( -1.000000000000000000, 0.0000000000000000000, 0.0000000000000000000 ) ) ;
#211 = DIRECTION ( 'NONE',  ( 0.0000000000000000000, 0.0000000000000000000, 1.000000000000000000 ) ) ;
#212 = ADVANCED_FACE ( 'NONE', ( #162 ), #114, .F. ) ;
#213 = EDGE_CURVE ( 'NONE', #44, #105, #161, .T. ) ;
ENDSEC;
END-ISO-10303-21;
