ISO-10303-21;
HEADER;
FILE_DESCRIPTION (( 'STEP AP203' ),
    '1' );
FILE_NAME ('300906.STEP',
    '2017-01-13T01:11:36',
    ( 'temp' ),
    ( '' ),
    'SwSTEP 2.0',
    'SolidWorks 2016',
    '' );
FILE_SCHEMA (( 'CONFIG_CONTROL_DESIGN' ));
ENDSEC;

DATA;
#1 = VECTOR ( 'NONE', #206, 39.37007874015748100 ) ;
#2 = EDGE_CURVE ( 'NONE', #123, #46, #100, .T. ) ;
#3 = FACE_OUTER_BOUND ( 'NONE', #161, .T. ) ;
#4 = APPROVAL_PERSON_ORGANIZATION ( #94, #195, #165 ) ;
#5 = CC_DESIGN_PERSON_AND_ORGANIZATION_ASSIGNMENT ( #74, #146, ( #180 ) ) ;
#6 = ADVANCED_FACE ( 'NONE', ( #18 ), #7, .F. ) ;
#7 = PLANE ( 'NONE',  #211 ) ;
#8 = COORDINATED_UNIVERSAL_TIME_OFFSET ( 8, 0, .BEHIND. ) ;
#9 = PERSON_AND_ORGANIZATION_ROLE ( 'creator' ) ;
#10 = DIRECTION ( 'NONE',  ( 0.0000000000000000000, 0.0000000000000000000, 1.000000000000000000 ) ) ;
#11 = CC_DESIGN_SECURITY_CLASSIFICATION ( #160, ( #34 ) ) ;
#12 = DIRECTION ( 'NONE',  ( -1.000000000000000000, 0.0000000000000000000, -3.491481338843133000E-015 ) ) ;
#13 = DIRECTION ( 'NONE',  ( 1.000000000000000000, 0.0000000000000000000, 3.491481338843133400E-015 ) ) ;
#14 = VERTEX_POINT ( 'NONE', #170 ) ;
#15 = COORDINATED_UNIVERSAL_TIME_OFFSET ( 8, 0, .BEHIND. ) ;
#16 = DIRECTION ( 'NONE',  ( 3.491481338843133000E-015, 0.0000000000000000000, -1.000000000000000000 ) ) ;
#17 = APPROVAL_PERSON_ORGANIZATION ( #21, #194, #50 ) ;
#18 = FACE_OUTER_BOUND ( 'NONE', #43, .T. ) ;
#19 = ORIENTED_EDGE ( 'NONE', *, *, #90, .T. ) ;
#20 = CC_DESIGN_DATE_AND_TIME_ASSIGNMENT ( #166, #42, ( #180 ) ) ;
#21 = PERSON_AND_ORGANIZATION ( #182, #26 ) ;
#22 = PRODUCT_RELATED_PRODUCT_CATEGORY ( 'detail', '', ( #130 ) ) ;
#23 = ORIENTED_EDGE ( 'NONE', *, *, #117, .F. ) ;
#24 = AXIS2_PLACEMENT_3D ( 'NONE', #87, #136, #32 ) ;
#25 = ORIENTED_EDGE ( 'NONE', *, *, #163, .T. ) ;
#26 = ORGANIZATION ( 'UNSPECIFIED', 'UNSPECIFIED', '' ) ;
#27 = ADVANCED_FACE ( 'NONE', ( #156 ), #89, .F. ) ;
#28 = CARTESIAN_POINT ( 'NONE',  ( 0.0000000000000000000, -1.624999999999999800, 0.0000000000000000000 ) ) ;
#29 = APPROVAL_ROLE ( '' ) ;
#30 = DATE_AND_TIME ( #205, #213 ) ;
#31 = ORIENTED_EDGE ( 'NONE', *, *, #155, .F. ) ;
#32 = DIRECTION ( 'NONE',  ( 0.0000000000000000000, 0.0000000000000000000, 1.000000000000000000 ) ) ;
#33 = PERSON_AND_ORGANIZATION ( #182, #26 ) ;
#34 = PRODUCT_DEFINITION_FORMATION_WITH_SPECIFIED_SOURCE ( 'ANY', '', #130, .NOT_KNOWN. ) ;
#35 = APPROVAL_DATE_TIME ( #30, #195 ) ;
#36 = EDGE_LOOP ( 'NONE', ( #125, #157, #212, #139 ) ) ;
#37 = AXIS2_PLACEMENT_3D ( 'NONE', #28, #63, #189 ) ;
#38 = SHAPE_DEFINITION_REPRESENTATION ( #39, #76 ) ;
#39 = PRODUCT_DEFINITION_SHAPE ( 'NONE', 'NONE',  #180 ) ;
#40 = VERTEX_POINT ( 'NONE', #203 ) ;
#41 = APPROVAL ( #131, 'UNSPECIFIED' ) ;
#42 = DATE_TIME_ROLE ( 'creation_date' ) ;
#43 = EDGE_LOOP ( 'NONE', ( #175, #19, #57, #25 ) ) ;
#44 = DIRECTION ( 'NONE',  ( 1.000000000000000000, 0.0000000000000000000, 3.491481338843133400E-015 ) ) ;
#45 = AXIS2_PLACEMENT_3D ( 'NONE', #88, #190, #71 ) ;
#46 = VERTEX_POINT ( 'NONE', #105 ) ;
#47 = ORIENTED_EDGE ( 'NONE', *, *, #138, .T. ) ;
#48 = AXIS2_PLACEMENT_3D ( 'NONE', #122, #84, #114 ) ;
#49 = ORIENTED_EDGE ( 'NONE', *, *, #163, .F. ) ;
#50 = APPROVAL_ROLE ( '' ) ;
#51 =( NAMED_UNIT ( * ) PLANE_ANGLE_UNIT ( ) SI_UNIT ( $, .RADIAN. ) );
#52 = CARTESIAN_POINT ( 'NONE',  ( -5.237222008264700000E-015, -1.624999999999999800, 1.500000000000000200 ) ) ;
#53 = CALENDAR_DATE ( 2017, 12, 1 ) ;
#54 = DIRECTION ( 'NONE',  ( 0.0000000000000000000, 0.0000000000000000000, 1.000000000000000000 ) ) ;
#55 = CARTESIAN_POINT ( 'NONE',  ( -5.673657175620091700E-015, -1.624999999999999800, 1.625000000000000000 ) ) ;
#56 = DIRECTION ( 'NONE',  ( 3.491481338843133400E-015, 0.0000000000000000000, -1.000000000000000000 ) ) ;
#57 = ORIENTED_EDGE ( 'NONE', *, *, #155, .T. ) ;
#58 = APPROVAL_DATE_TIME ( #81, #194 ) ;
#59 = AXIS2_PLACEMENT_3D ( 'NONE', #102, #202, #85 ) ;
#60 = ORIENTED_EDGE ( 'NONE', *, *, #128, .T. ) ;
#61 = COORDINATED_UNIVERSAL_TIME_OFFSET ( 8, 0, .BEHIND. ) ;
#62 = VECTOR ( 'NONE', #68, 39.37007874015748100 ) ;
#63 = DIRECTION ( 'NONE',  ( -0.0000000000000000000, 1.000000000000000000, -0.0000000000000000000 ) ) ;
#64 = ADVANCED_FACE ( 'NONE', ( #95 ), #121, .T. ) ;
#65 = APPROVAL_STATUS ( 'not_yet_approved' ) ;
#66 = APPLICATION_PROTOCOL_DEFINITION ( 'international standard', 'config_control_design', 1994, #185 ) ;
#67 = LOCAL_TIME ( 17, 11, 36.00000000000000000, #61 ) ;
#68 = DIRECTION ( 'NONE',  ( -3.491481338843133000E-015, 0.0000000000000000000, 1.000000000000000000 ) ) ;
#69 = CARTESIAN_POINT ( 'NONE',  ( 1.500000000000000200, -1.624999999999999800, 0.0000000000000000000 ) ) ;
#70 = AXIS2_PLACEMENT_3D ( 'NONE', #171, #54, #154 ) ;
#71 = DIRECTION ( 'NONE',  ( -1.000000000000000000, 0.0000000000000000000, 0.0000000000000000000 ) ) ;
#72 = ORIENTED_EDGE ( 'NONE', *, *, #2, .F. ) ;
#73 = CARTESIAN_POINT ( 'NONE',  ( -3.474113049791279200E-031, -1.625000000000000000, 9.950255243072245600E-017 ) ) ;
#74 = PERSON_AND_ORGANIZATION ( #182, #26 ) ;
#75 = CIRCLE ( 'NONE', #59, 1.500000000000000200 ) ;
#76 = ADVANCED_BREP_SHAPE_REPRESENTATION ( '300906', ( #150, #159 ), #104 ) ;
#77 = CALENDAR_DATE ( 2017, 12, 1 ) ;
#78 = CIRCLE ( 'NONE', #70, 1.625000000000000000 ) ;
#79 = AXIS2_PLACEMENT_3D ( 'NONE', #153, #44, #133 ) ;
#80 = PERSON_AND_ORGANIZATION_ROLE ( 'classification_officer' ) ;
#81 = DATE_AND_TIME ( #77, #178 ) ;
#82 = PERSON_AND_ORGANIZATION_ROLE ( 'design_owner' ) ;
#83 = CARTESIAN_POINT ( 'NONE',  ( 0.0000000000000000000, 0.0000000000000000000, 0.0000000000000000000 ) ) ;
#84 = DIRECTION ( 'NONE',  ( -0.0000000000000000000, 1.000000000000000000, -0.0000000000000000000 ) ) ;
#85 = DIRECTION ( 'NONE',  ( -1.000000000000000000, 0.0000000000000000000, 0.0000000000000000000 ) ) ;
#86 = SPHERICAL_SURFACE ( 'NONE', #93, 1.625000000000000000 ) ;
#87 = CARTESIAN_POINT ( 'NONE',  ( -5.237222008264700000E-015, -1.624999999999999800, 1.500000000000000200 ) ) ;
#88 = CARTESIAN_POINT ( 'NONE',  ( 9.950255243072245600E-017, -1.625000000000000000, 0.0000000000000000000 ) ) ;
#89 = PLANE ( 'NONE',  #24 ) ;
#90 = EDGE_CURVE ( 'NONE', #46, #14, #107, .T. ) ;
#91 = DATE_AND_TIME ( #96, #106 ) ;
#92 = LINE ( 'NONE', #52, #62 ) ;
#93 = AXIS2_PLACEMENT_3D ( 'NONE', #119, #13, #101 ) ;
#94 = PERSON_AND_ORGANIZATION ( #182, #26 ) ;
#95 = FACE_OUTER_BOUND ( 'NONE', #36, .T. ) ;
#96 = CALENDAR_DATE ( 2017, 12, 1 ) ;
#97 = PERSON_AND_ORGANIZATION_ROLE ( 'design_supplier' ) ;
#98 = DIRECTION ( 'NONE',  ( 1.000000000000000000, 0.0000000000000000000, 0.0000000000000000000 ) ) ;
#99 = DIRECTION ( 'NONE',  ( 3.491481338843133000E-015, 0.0000000000000000000, -1.000000000000000000 ) ) ;
#100 = CIRCLE ( 'NONE', #177, 1.625000000000000000 ) ;
#101 = DIRECTION ( 'NONE',  ( -3.491481338843133400E-015, 0.0000000000000000000, 1.000000000000000000 ) ) ;
#102 = CARTESIAN_POINT ( 'NONE',  ( 9.950255243072245600E-017, -1.625000000000000000, 0.0000000000000000000 ) ) ;
#103 = DIRECTION ( 'NONE',  ( 1.000000000000000000, 0.0000000000000000000, 3.491481338843133000E-015 ) ) ;
#104 =( GEOMETRIC_REPRESENTATION_CONTEXT ( 3 ) GLOBAL_UNCERTAINTY_ASSIGNED_CONTEXT ( ( #168 ) ) GLOBAL_UNIT_ASSIGNED_CONTEXT ( ( #169, #51, #148 ) ) REPRESENTATION_CONTEXT ( 'NONE', 'WORKASPACE' ) );
#105 = CARTESIAN_POINT ( 'NONE',  ( 0.0000000000000000000, 0.0000000000000000000, 0.0000000000000000000 ) ) ;
#106 = LOCAL_TIME ( 17, 11, 36.00000000000000000, #111 ) ;
#107 = LINE ( 'NONE', #173, #1 ) ;
#108 = PERSON_AND_ORGANIZATION ( #182, #26 ) ;
#109 = ORIENTED_EDGE ( 'NONE', *, *, #127, .F. ) ;
#110 = CLOSED_SHELL ( 'NONE', ( #144, #27, #164, #6, #64 ) ) ;
#111 = COORDINATED_UNIVERSAL_TIME_OFFSET ( 8, 0, .BEHIND. ) ;
#112 = AXIS2_PLACEMENT_3D ( 'NONE', #201, #12, #99 ) ;
#113 = DIMENSIONAL_EXPONENTS ( 1.000000000000000000, 0.0000000000000000000, 0.0000000000000000000, 0.0000000000000000000, 0.0000000000000000000, 0.0000000000000000000, 0.0000000000000000000 ) ;
#114 = DIRECTION ( 'NONE',  ( 0.0000000000000000000, 0.0000000000000000000, 1.000000000000000000 ) ) ;
#115 = ORIENTED_EDGE ( 'NONE', *, *, #127, .T. ) ;
#116 = APPLICATION_CONTEXT ( 'configuration controlled 3d designs of mechanical parts and assemblies' ) ;
#117 = EDGE_CURVE ( 'NONE', #142, #193, #209, .T. ) ;
#118 =( LENGTH_UNIT ( ) NAMED_UNIT ( * ) SI_UNIT ( $, .METRE. ) );
#119 = CARTESIAN_POINT ( 'NONE',  ( -3.474113049791279200E-031, -1.625000000000000000, 9.950255243072245600E-017 ) ) ;
#120 = PERSON_AND_ORGANIZATION ( #182, #26 ) ;
#121 = PLANE ( 'NONE',  #45 ) ;
#122 = CARTESIAN_POINT ( 'NONE',  ( 0.0000000000000000000, -1.624999999999999800, 0.0000000000000000000 ) ) ;
#123 = VERTEX_POINT ( 'NONE', #55 ) ;
#124 = PERSON_AND_ORGANIZATION ( #182, #26 ) ;
#125 = ORIENTED_EDGE ( 'NONE', *, *, #138, .F. ) ;
#126 = CC_DESIGN_APPROVAL ( #41, ( #34 ) ) ;
#127 = EDGE_CURVE ( 'NONE', #123, #40, #200, .T. ) ;
#128 = EDGE_CURVE ( 'NONE', #14, #193, #75, .T. ) ;
#129 = APPROVAL_DATE_TIME ( #134, #41 ) ;
#130 = PRODUCT ( '300906', '300906', '', ( #199 ) ) ;
#131 = APPROVAL_STATUS ( 'not_yet_approved' ) ;
#132 = APPLICATION_PROTOCOL_DEFINITION ( 'international standard', 'config_control_design', 1994, #116 ) ;
#133 = DIRECTION ( 'NONE',  ( 3.491481338843133000E-015, 0.0000000000000000000, -1.000000000000000000 ) ) ;
#134 = DATE_AND_TIME ( #143, #140 ) ;
#135 = DIRECTION ( 'NONE',  ( 1.000000000000000000, 0.0000000000000000000, 0.0000000000000000000 ) ) ;
#136 = DIRECTION ( 'NONE',  ( -0.0000000000000000000, 1.000000000000000000, 0.0000000000000000000 ) ) ;
#137 = CC_DESIGN_PERSON_AND_ORGANIZATION_ASSIGNMENT ( #120, #9, ( #34 ) ) ;
#138 = EDGE_CURVE ( 'NONE', #40, #46, #78, .T. ) ;
#139 = ORIENTED_EDGE ( 'NONE', *, *, #90, .F. ) ;
#140 = LOCAL_TIME ( 17, 11, 36.00000000000000000, #158 ) ;
#141 = EDGE_CURVE ( 'NONE', #193, #40, #188, .T. ) ;
#142 = VERTEX_POINT ( 'NONE', #152 ) ;
#143 = CALENDAR_DATE ( 2017, 12, 1 ) ;
#144 = ADVANCED_FACE ( 'NONE', ( #3 ), #86, .T. ) ;
#145 = DESIGN_CONTEXT ( 'detailed design', #185, 'design' ) ;
#146 = PERSON_AND_ORGANIZATION_ROLE ( 'creator' ) ;
#147 = CC_DESIGN_PERSON_AND_ORGANIZATION_ASSIGNMENT ( #124, #97, ( #34 ) ) ;
#148 =( NAMED_UNIT ( * ) SI_UNIT ( $, .STERADIAN. ) SOLID_ANGLE_UNIT ( ) );
#149 = ORIENTED_EDGE ( 'NONE', *, *, #141, .T. ) ;
#150 = MANIFOLD_SOLID_BREP ( 'Revolve1', #110 ) ;
#151 = APPROVAL_PERSON_ORGANIZATION ( #162, #41, #29 ) ;
#152 = CARTESIAN_POINT ( 'NONE',  ( -5.237222008264700000E-015, -1.624999999999999800, 1.500000000000000200 ) ) ;
#153 = CARTESIAN_POINT ( 'NONE',  ( -3.474113049791279200E-031, -1.625000000000000000, 9.950255243072245600E-017 ) ) ;
#154 = DIRECTION ( 'NONE',  ( -1.000000000000000000, 0.0000000000000000000, 0.0000000000000000000 ) ) ;
#155 = EDGE_CURVE ( 'NONE', #14, #142, #196, .T. ) ;
#156 = FACE_OUTER_BOUND ( 'NONE', #172, .T. ) ;
#157 = ORIENTED_EDGE ( 'NONE', *, *, #141, .F. ) ;
#158 = COORDINATED_UNIVERSAL_TIME_OFFSET ( 8, 0, .BEHIND. ) ;
#159 = AXIS2_PLACEMENT_3D ( 'NONE', #83, #10, #98 ) ;
#160 = SECURITY_CLASSIFICATION ( '', '', #198 ) ;
#161 = EDGE_LOOP ( 'NONE', ( #115, #47, #72 ) ) ;
#162 = PERSON_AND_ORGANIZATION ( #182, #26 ) ;
#163 = EDGE_CURVE ( 'NONE', #142, #123, #92, .T. ) ;
#164 = ADVANCED_FACE ( 'NONE', ( #179 ), #181, .F. ) ;
#165 = APPROVAL_ROLE ( '' ) ;
#166 = DATE_AND_TIME ( #53, #67 ) ;
#167 = APPROVAL_STATUS ( 'not_yet_approved' ) ;
#168 = UNCERTAINTY_MEASURE_WITH_UNIT (LENGTH_MEASURE( 1.000000000000000100E-005 ), #169, 'distance_accuracy_value', 'NONE');
#169 =( CONVERSION_BASED_UNIT ( 'INCH', #192 ) LENGTH_UNIT ( ) NAMED_UNIT ( #113 ) );
#170 = CARTESIAN_POINT ( 'NONE',  ( 4.947982283084146900E-031, -0.1249999999999999000, -1.417158450207730500E-016 ) ) ;
#171 = CARTESIAN_POINT ( 'NONE',  ( 9.950255243072245600E-017, -1.625000000000000000, 0.0000000000000000000 ) ) ;
#172 = EDGE_LOOP ( 'NONE', ( #191, #149, #109, #49 ) ) ;
#173 = CARTESIAN_POINT ( 'NONE',  ( 0.0000000000000000000, 0.0000000000000000000, 0.0000000000000000000 ) ) ;
#174 = CC_DESIGN_PERSON_AND_ORGANIZATION_ASSIGNMENT ( #33, #82, ( #130 ) ) ;
#175 = ORIENTED_EDGE ( 'NONE', *, *, #2, .T. ) ;
#176 = CC_DESIGN_PERSON_AND_ORGANIZATION_ASSIGNMENT ( #108, #80, ( #160 ) ) ;
#177 = AXIS2_PLACEMENT_3D ( 'NONE', #208, #183, #56 ) ;
#178 = LOCAL_TIME ( 17, 11, 36.00000000000000000, #8 ) ;
#179 = FACE_OUTER_BOUND ( 'NONE', #204, .T. ) ;
#180 = PRODUCT_DEFINITION ( 'UNKNOWN', '', #34, #145 ) ;
#181 = SPHERICAL_SURFACE ( 'NONE', #112, 1.500000000000000200 ) ;
#182 = PERSON ( 'UNSPECIFIED', 'UNSPECIFIED', 'UNSPECIFIED', ('UNSPECIFIED'), ('UNSPECIFIED'), ('UNSPECIFIED') ) ;
#183 = DIRECTION ( 'NONE',  ( -1.000000000000000000, 0.0000000000000000000, -3.491481338843133400E-015 ) ) ;
#184 = DATE_TIME_ROLE ( 'classification_date' ) ;
#185 = APPLICATION_CONTEXT ( 'configuration controlled 3d designs of mechanical parts and assemblies' ) ;
#186 = CC_DESIGN_DATE_AND_TIME_ASSIGNMENT ( #91, #184, ( #160 ) ) ;
#187 = CARTESIAN_POINT ( 'NONE',  ( 1.500000000000000200, -1.624999999999999800, 0.0000000000000000000 ) ) ;
#188 = LINE ( 'NONE', #69, #197 ) ;
#189 = DIRECTION ( 'NONE',  ( 0.0000000000000000000, 0.0000000000000000000, 1.000000000000000000 ) ) ;
#190 = DIRECTION ( 'NONE',  ( -0.0000000000000000000, 0.0000000000000000000, -1.000000000000000000 ) ) ;
#191 = ORIENTED_EDGE ( 'NONE', *, *, #117, .T. ) ;
#192 = LENGTH_MEASURE_WITH_UNIT ( LENGTH_MEASURE( 0.02539999999999999900 ), #118 );
#193 = VERTEX_POINT ( 'NONE', #187 ) ;
#194 = APPROVAL ( #167, 'UNSPECIFIED' ) ;
#195 = APPROVAL ( #65, 'UNSPECIFIED' ) ;
#196 = CIRCLE ( 'NONE', #79, 1.500000000000000200 ) ;
#197 = VECTOR ( 'NONE', #135, 39.37007874015748100 ) ;
#198 = SECURITY_CLASSIFICATION_LEVEL ( 'unclassified' ) ;
#199 = MECHANICAL_CONTEXT ( 'NONE', #116, 'mechanical' ) ;
#200 = CIRCLE ( 'NONE', #48, 1.625000000000000000 ) ;
#201 = CARTESIAN_POINT ( 'NONE',  ( -3.474113049791279200E-031, -1.625000000000000000, 9.950255243072245600E-017 ) ) ;
#202 = DIRECTION ( 'NONE',  ( -0.0000000000000000000, -0.0000000000000000000, -1.000000000000000000 ) ) ;
#203 = CARTESIAN_POINT ( 'NONE',  ( 1.625000000000000000, -1.624999999999999800, 0.0000000000000000000 ) ) ;
#204 = EDGE_LOOP ( 'NONE', ( #60, #23, #31 ) ) ;
#205 = CALENDAR_DATE ( 2017, 12, 1 ) ;
#206 = DIRECTION ( 'NONE',  ( 3.958385826467321000E-030, -1.000000000000000000, -1.133726760166185400E-015 ) ) ;
#207 = CC_DESIGN_APPROVAL ( #194, ( #180 ) ) ;
#208 = CARTESIAN_POINT ( 'NONE',  ( -3.474113049791279200E-031, -1.625000000000000000, 9.950255243072245600E-017 ) ) ;
#209 = CIRCLE ( 'NONE', #37, 1.500000000000000200 ) ;
#210 = CC_DESIGN_APPROVAL ( #195, ( #160 ) ) ;
#211 = AXIS2_PLACEMENT_3D ( 'NONE', #73, #103, #16 ) ;
#212 = ORIENTED_EDGE ( 'NONE', *, *, #128, .F. ) ;
#213 = LOCAL_TIME ( 17, 11, 36.00000000000000000, #15 ) ;
ENDSEC;
END-ISO-10303-21;
