ISO-10303-21;
HEADER;
FILE_DESCRIPTION (( 'STEP AP203' ),
    '1' );
FILE_NAME ('300905.STEP',
    '2017-01-13T01:04:26',
    ( 'temp' ),
    ( '' ),
    'SwSTEP 2.0',
    'SolidWorks 2016',
    '' );
FILE_SCHEMA (( 'CONFIG_CONTROL_DESIGN' ));
ENDSEC;

DATA;
#1 = CIRCLE ( 'NONE', #46, 1.500000000000000200 ) ;
#2 = PERSON_AND_ORGANIZATION ( #207, #211 ) ;
#3 = AXIS2_PLACEMENT_3D ( 'NONE', #147, #101, #12 ) ;
#4 = LOCAL_TIME ( 17, 4, 26.00000000000000000, #86 ) ;
#5 = CARTESIAN_POINT ( 'NONE',  ( -3.313769370570143400E-031, -1.550000000000000000, 9.491012693391988500E-017 ) ) ;
#6 = EDGE_LOOP ( 'NONE', ( #160, #109, #114, #209 ) ) ;
#7 = CALENDAR_DATE ( 2017, 12, 1 ) ;
#8 = ORIENTED_EDGE ( 'NONE', *, *, #113, .T. ) ;
#9 =( LENGTH_UNIT ( ) NAMED_UNIT ( * ) SI_UNIT ( $, .METRE. ) );
#10 = DIRECTION ( 'NONE',  ( -0.0000000000000000000, -0.0000000000000000000, -1.000000000000000000 ) ) ;
#11 = CLOSED_SHELL ( 'NONE', ( #18, #174, #150, #179, #22 ) ) ;
#12 = DIRECTION ( 'NONE',  ( 0.0000000000000000000, 0.0000000000000000000, 1.000000000000000000 ) ) ;
#13 = EDGE_LOOP ( 'NONE', ( #202, #8, #69, #106 ) ) ;
#14 = DIRECTION ( 'NONE',  ( 0.0000000000000000000, 0.0000000000000000000, 1.000000000000000000 ) ) ;
#15 = CARTESIAN_POINT ( 'NONE',  ( -3.313769370570143400E-031, -1.550000000000000000, 9.491012693391988500E-017 ) ) ;
#16 = PERSON_AND_ORGANIZATION ( #207, #211 ) ;
#17 = CALENDAR_DATE ( 2017, 12, 1 ) ;
#18 = ADVANCED_FACE ( 'NONE', ( #53 ), #210, .T. ) ;
#19 = CARTESIAN_POINT ( 'NONE',  ( 1.500000000000000200, -1.549999999999999800, 0.0000000000000000000 ) ) ;
#20 = CARTESIAN_POINT ( 'NONE',  ( -5.237222008264700000E-015, -1.549999999999999800, 1.500000000000000200 ) ) ;
#21 = DATE_AND_TIME ( #17, #4 ) ;
#22 = ADVANCED_FACE ( 'NONE', ( #77 ), #159, .T. ) ;
#23 = LOCAL_TIME ( 17, 4, 26.00000000000000000, #193 ) ;
#24 = LINE ( 'NONE', #59, #73 ) ;
#25 = CIRCLE ( 'NONE', #166, 1.550000000000000000 ) ;
#26 = EDGE_CURVE ( 'NONE', #27, #133, #176, .T. ) ;
#27 = VERTEX_POINT ( 'NONE', #68 ) ;
#28 = CC_DESIGN_DATE_AND_TIME_ASSIGNMENT ( #21, #152, ( #80 ) ) ;
#29 = CARTESIAN_POINT ( 'NONE',  ( 0.0000000000000000000, -1.549999999999999800, 0.0000000000000000000 ) ) ;
#30 = LINE ( 'NONE', #71, #175 ) ;
#31 = CIRCLE ( 'NONE', #3, 1.549999999999999800 ) ;
#32 = COORDINATED_UNIVERSAL_TIME_OFFSET ( 8, 0, .BEHIND. ) ;
#33 = AXIS2_PLACEMENT_3D ( 'NONE', #162, #115, #97 ) ;
#34 = DIRECTION ( 'NONE',  ( 1.000000000000000000, 0.0000000000000000000, 3.491481338843133000E-015 ) ) ;
#35 = PERSON_AND_ORGANIZATION ( #207, #211 ) ;
#36 = AXIS2_PLACEMENT_3D ( 'NONE', #93, #173, #66 ) ;
#37 = CC_DESIGN_PERSON_AND_ORGANIZATION_ASSIGNMENT ( #104, #111, ( #102 ) ) ;
#38 = DIRECTION ( 'NONE',  ( 3.491481338843133700E-015, 0.0000000000000000000, -1.000000000000000000 ) ) ;
#39 = VERTEX_POINT ( 'NONE', #128 ) ;
#40 = DIRECTION ( 'NONE',  ( -1.000000000000000000, 0.0000000000000000000, -3.491481338843133400E-015 ) ) ;
#41 = CARTESIAN_POINT ( 'NONE',  ( -3.313769370570143400E-031, -1.550000000000000000, 9.491012693391988500E-017 ) ) ;
#42 = DATE_AND_TIME ( #50, #23 ) ;
#43 = CARTESIAN_POINT ( 'NONE',  ( -3.313769370570143400E-031, -1.550000000000000000, 9.491012693391988500E-017 ) ) ;
#44 = DATE_TIME_ROLE ( 'creation_date' ) ;
#45 = EDGE_LOOP ( 'NONE', ( #164, #190, #201 ) ) ;
#46 = AXIS2_PLACEMENT_3D ( 'NONE', #29, #48, #107 ) ;
#47 = APPLICATION_PROTOCOL_DEFINITION ( 'international standard', 'config_control_design', 1994, #108 ) ;
#48 = DIRECTION ( 'NONE',  ( -0.0000000000000000000, 1.000000000000000000, -0.0000000000000000000 ) ) ;
#49 = DIRECTION ( 'NONE',  ( 1.000000000000000000, 0.0000000000000000000, 3.491481338843133400E-015 ) ) ;
#50 = CALENDAR_DATE ( 2017, 12, 1 ) ;
#51 = EDGE_CURVE ( 'NONE', #133, #39, #24, .T. ) ;
#52 = EDGE_CURVE ( 'NONE', #133, #186, #1, .T. ) ;
#53 = FACE_OUTER_BOUND ( 'NONE', #79, .T. ) ;
#54 = CC_DESIGN_PERSON_AND_ORGANIZATION_ASSIGNMENT ( #124, #158, ( #102 ) ) ;
#55 = DIRECTION ( 'NONE',  ( 3.491481338843133000E-015, 0.0000000000000000000, -1.000000000000000000 ) ) ;
#56 = ORIENTED_EDGE ( 'NONE', *, *, #213, .F. ) ;
#57 = PERSON_AND_ORGANIZATION ( #207, #211 ) ;
#58 = COORDINATED_UNIVERSAL_TIME_OFFSET ( 8, 0, .BEHIND. ) ;
#59 = CARTESIAN_POINT ( 'NONE',  ( -5.237222008264700000E-015, -1.549999999999999800, 1.500000000000000200 ) ) ;
#60 = LOCAL_TIME ( 17, 4, 26.00000000000000000, #136 ) ;
#61 = APPROVAL_STATUS ( 'not_yet_approved' ) ;
#62 = DIRECTION ( 'NONE',  ( -1.000000000000000000, 0.0000000000000000000, 0.0000000000000000000 ) ) ;
#63 = PERSON_AND_ORGANIZATION_ROLE ( 'classification_officer' ) ;
#64 = CALENDAR_DATE ( 2017, 12, 1 ) ;
#65 = APPROVAL ( #61, 'UNSPECIFIED' ) ;
#66 = DIRECTION ( 'NONE',  ( 0.0000000000000000000, 0.0000000000000000000, 1.000000000000000000 ) ) ;
#67 = CC_DESIGN_PERSON_AND_ORGANIZATION_ASSIGNMENT ( #16, #200, ( #137 ) ) ;
#68 = CARTESIAN_POINT ( 'NONE',  ( 5.108325962305281400E-031, -0.05000000000000001000, -1.463082705175756000E-016 ) ) ;
#69 = ORIENTED_EDGE ( 'NONE', *, *, #95, .F. ) ;
#70 = CC_DESIGN_APPROVAL ( #122, ( #80 ) ) ;
#71 = CARTESIAN_POINT ( 'NONE',  ( 0.0000000000000000000, 0.0000000000000000000, 0.0000000000000000000 ) ) ;
#72 = CC_DESIGN_PERSON_AND_ORGANIZATION_ASSIGNMENT ( #57, #63, ( #80 ) ) ;
#73 = VECTOR ( 'NONE', #81, 39.37007874015748100 ) ;
#74 = CARTESIAN_POINT ( 'NONE',  ( 9.491012693391988500E-017, -1.550000000000000000, 0.0000000000000000000 ) ) ;
#75 = UNCERTAINTY_MEASURE_WITH_UNIT (LENGTH_MEASURE( 1.000000000000000100E-005 ), #119, 'distance_accuracy_value', 'NONE');
#76 = CIRCLE ( 'NONE', #144, 1.500000000000000200 ) ;
#77 = FACE_OUTER_BOUND ( 'NONE', #105, .T. ) ;
#78 = AXIS2_PLACEMENT_3D ( 'NONE', #165, #14, #197 ) ;
#79 = EDGE_LOOP ( 'NONE', ( #85, #138, #206 ) ) ;
#80 = SECURITY_CLASSIFICATION ( '', '', #199 ) ;
#81 = DIRECTION ( 'NONE',  ( -3.491481338843133000E-015, 0.0000000000000000000, 1.000000000000000000 ) ) ;
#82 = DIRECTION ( 'NONE',  ( -1.000000000000000000, 0.0000000000000000000, -3.491481338843133000E-015 ) ) ;
#83 = SHAPE_DEFINITION_REPRESENTATION ( #139, #112 ) ;
#84 = CARTESIAN_POINT ( 'NONE',  ( 1.500000000000000200, -1.549999999999999800, 0.0000000000000000000 ) ) ;
#85 = ORIENTED_EDGE ( 'NONE', *, *, #95, .T. ) ;
#86 = COORDINATED_UNIVERSAL_TIME_OFFSET ( 8, 0, .BEHIND. ) ;
#87 = PLANE ( 'NONE',  #36 ) ;
#88 = VERTEX_POINT ( 'NONE', #182 ) ;
#89 = CC_DESIGN_SECURITY_CLASSIFICATION ( #80, ( #102 ) ) ;
#90 = FACE_OUTER_BOUND ( 'NONE', #6, .T. ) ;
#91 = APPROVAL_DATE_TIME ( #168, #122 ) ;
#92 = ORIENTED_EDGE ( 'NONE', *, *, #195, .F. ) ;
#93 = CARTESIAN_POINT ( 'NONE',  ( -5.237222008264700000E-015, -1.549999999999999800, 1.500000000000000200 ) ) ;
#94 = APPROVAL_PERSON_ORGANIZATION ( #35, #122, #203 ) ;
#95 = EDGE_CURVE ( 'NONE', #39, #169, #31, .T. ) ;
#96 = PERSON_AND_ORGANIZATION ( #207, #211 ) ;
#97 = DIRECTION ( 'NONE',  ( -1.000000000000000000, 0.0000000000000000000, 0.0000000000000000000 ) ) ;
#98 = APPLICATION_PROTOCOL_DEFINITION ( 'international standard', 'config_control_design', 1994, #172 ) ;
#99 = AXIS2_PLACEMENT_3D ( 'NONE', #41, #49, #131 ) ;
#100 = CC_DESIGN_DATE_AND_TIME_ASSIGNMENT ( #42, #44, ( #137 ) ) ;
#101 = DIRECTION ( 'NONE',  ( -0.0000000000000000000, 1.000000000000000000, -0.0000000000000000000 ) ) ;
#102 = PRODUCT_DEFINITION_FORMATION_WITH_SPECIFIED_SOURCE ( 'ANY', '', #163, .NOT_KNOWN. ) ;
#103 = CALENDAR_DATE ( 2017, 12, 1 ) ;
#104 = PERSON_AND_ORGANIZATION ( #207, #211 ) ;
#105 = EDGE_LOOP ( 'NONE', ( #92, #178, #177, #56 ) ) ;
#106 = ORIENTED_EDGE ( 'NONE', *, *, #51, .F. ) ;
#107 = DIRECTION ( 'NONE',  ( 0.0000000000000000000, 0.0000000000000000000, 1.000000000000000000 ) ) ;
#108 = APPLICATION_CONTEXT ( 'configuration controlled 3d designs of mechanical parts and assemblies' ) ;
#109 = ORIENTED_EDGE ( 'NONE', *, *, #213, .T. ) ;
#110 = DIRECTION ( 'NONE',  ( -3.491481338843133400E-015, 0.0000000000000000000, 1.000000000000000000 ) ) ;
#111 = PERSON_AND_ORGANIZATION_ROLE ( 'creator' ) ;
#112 = ADVANCED_BREP_SHAPE_REPRESENTATION ( '300905', ( #167, #78 ), #127 ) ;
#113 = EDGE_CURVE ( 'NONE', #186, #169, #125, .T. ) ;
#114 = ORIENTED_EDGE ( 'NONE', *, *, #26, .T. ) ;
#115 = DIRECTION ( 'NONE',  ( 0.0000000000000000000, 0.0000000000000000000, 1.000000000000000000 ) ) ;
#116 = DIMENSIONAL_EXPONENTS ( 1.000000000000000000, 0.0000000000000000000, 0.0000000000000000000, 0.0000000000000000000, 0.0000000000000000000, 0.0000000000000000000, 0.0000000000000000000 ) ;
#117 = CARTESIAN_POINT ( 'NONE',  ( 1.549999999999999800, -1.549999999999999800, 0.0000000000000000000 ) ) ;
#118 = MECHANICAL_CONTEXT ( 'NONE', #172, 'mechanical' ) ;
#119 =( CONVERSION_BASED_UNIT ( 'INCH', #181 ) LENGTH_UNIT ( ) NAMED_UNIT ( #116 ) );
#120 = CC_DESIGN_APPROVAL ( #65, ( #102 ) ) ;
#121 = CIRCLE ( 'NONE', #33, 1.550000000000000000 ) ;
#122 = APPROVAL ( #141, 'UNSPECIFIED' ) ;
#123 = DESIGN_CONTEXT ( 'detailed design', #108, 'design' ) ;
#124 = PERSON_AND_ORGANIZATION ( #207, #211 ) ;
#125 = LINE ( 'NONE', #84, #170 ) ;
#126 = CC_DESIGN_APPROVAL ( #196, ( #137 ) ) ;
#127 =( GEOMETRIC_REPRESENTATION_CONTEXT ( 3 ) GLOBAL_UNCERTAINTY_ASSIGNED_CONTEXT ( ( #75 ) ) GLOBAL_UNIT_ASSIGNED_CONTEXT ( ( #119, #140, #134 ) ) REPRESENTATION_CONTEXT ( 'NONE', 'WORKASPACE' ) );
#128 = CARTESIAN_POINT ( 'NONE',  ( -5.411796075206856700E-015, -1.549999999999999800, 1.549999999999999800 ) ) ;
#129 = AXIS2_PLACEMENT_3D ( 'NONE', #43, #82, #180 ) ;
#130 = APPROVAL_DATE_TIME ( #132, #65 ) ;
#131 = DIRECTION ( 'NONE',  ( 3.491481338843133000E-015, 0.0000000000000000000, -1.000000000000000000 ) ) ;
#132 = DATE_AND_TIME ( #7, #60 ) ;
#133 = VERTEX_POINT ( 'NONE', #20 ) ;
#134 =( NAMED_UNIT ( * ) SI_UNIT ( $, .STERADIAN. ) SOLID_ANGLE_UNIT ( ) );
#135 = LOCAL_TIME ( 17, 4, 26.00000000000000000, #32 ) ;
#136 = COORDINATED_UNIVERSAL_TIME_OFFSET ( 8, 0, .BEHIND. ) ;
#137 = PRODUCT_DEFINITION ( 'UNKNOWN', '', #102, #123 ) ;
#138 = ORIENTED_EDGE ( 'NONE', *, *, #195, .T. ) ;
#139 = PRODUCT_DEFINITION_SHAPE ( 'NONE', 'NONE',  #137 ) ;
#140 =( NAMED_UNIT ( * ) PLANE_ANGLE_UNIT ( ) SI_UNIT ( $, .RADIAN. ) );
#141 = APPROVAL_STATUS ( 'not_yet_approved' ) ;
#142 = APPROVAL_ROLE ( '' ) ;
#143 = AXIS2_PLACEMENT_3D ( 'NONE', #205, #208, #62 ) ;
#144 = AXIS2_PLACEMENT_3D ( 'NONE', #74, #10, #148 ) ;
#145 = CC_DESIGN_PERSON_AND_ORGANIZATION_ASSIGNMENT ( #154, #198, ( #163 ) ) ;
#146 = DATE_AND_TIME ( #103, #135 ) ;
#147 = CARTESIAN_POINT ( 'NONE',  ( 0.0000000000000000000, -1.549999999999999800, 0.0000000000000000000 ) ) ;
#148 = DIRECTION ( 'NONE',  ( -1.000000000000000000, 0.0000000000000000000, 0.0000000000000000000 ) ) ;
#149 = EDGE_CURVE ( 'NONE', #27, #186, #76, .T. ) ;
#150 = ADVANCED_FACE ( 'NONE', ( #189 ), #212, .F. ) ;
#151 = APPROVAL_PERSON_ORGANIZATION ( #2, #65, #142 ) ;
#152 = DATE_TIME_ROLE ( 'classification_date' ) ;
#153 = PLANE ( 'NONE',  #191 ) ;
#154 = PERSON_AND_ORGANIZATION ( #207, #211 ) ;
#155 = CARTESIAN_POINT ( 'NONE',  ( -3.313769370570143400E-031, -1.550000000000000000, 9.491012693391988500E-017 ) ) ;
#156 = FACE_OUTER_BOUND ( 'NONE', #13, .T. ) ;
#157 = EDGE_CURVE ( 'NONE', #39, #88, #25, .T. ) ;
#158 = PERSON_AND_ORGANIZATION_ROLE ( 'design_supplier' ) ;
#159 = PLANE ( 'NONE',  #143 ) ;
#160 = ORIENTED_EDGE ( 'NONE', *, *, #157, .T. ) ;
#161 = AXIS2_PLACEMENT_3D ( 'NONE', #15, #194, #110 ) ;
#162 = CARTESIAN_POINT ( 'NONE',  ( 9.491012693391988500E-017, -1.550000000000000000, 0.0000000000000000000 ) ) ;
#163 = PRODUCT ( '300905', '300905', '', ( #118 ) ) ;
#164 = ORIENTED_EDGE ( 'NONE', *, *, #149, .T. ) ;
#165 = CARTESIAN_POINT ( 'NONE',  ( 0.0000000000000000000, 0.0000000000000000000, 0.0000000000000000000 ) ) ;
#166 = AXIS2_PLACEMENT_3D ( 'NONE', #5, #40, #38 ) ;
#167 = MANIFOLD_SOLID_BREP ( 'Revolve1', #11 ) ;
#168 = DATE_AND_TIME ( #64, #192 ) ;
#169 = VERTEX_POINT ( 'NONE', #117 ) ;
#170 = VECTOR ( 'NONE', #188, 39.37007874015748100 ) ;
#171 = PRODUCT_RELATED_PRODUCT_CATEGORY ( 'detail', '', ( #163 ) ) ;
#172 = APPLICATION_CONTEXT ( 'configuration controlled 3d designs of mechanical parts and assemblies' ) ;
#173 = DIRECTION ( 'NONE',  ( -0.0000000000000000000, 1.000000000000000000, 0.0000000000000000000 ) ) ;
#174 = ADVANCED_FACE ( 'NONE', ( #156 ), #87, .F. ) ;
#175 = VECTOR ( 'NONE', #204, 39.37007874015748100 ) ;
#176 = CIRCLE ( 'NONE', #99, 1.500000000000000200 ) ;
#177 = ORIENTED_EDGE ( 'NONE', *, *, #149, .F. ) ;
#178 = ORIENTED_EDGE ( 'NONE', *, *, #113, .F. ) ;
#179 = ADVANCED_FACE ( 'NONE', ( #90 ), #153, .F. ) ;
#180 = DIRECTION ( 'NONE',  ( 3.491481338843133000E-015, 0.0000000000000000000, -1.000000000000000000 ) ) ;
#181 = LENGTH_MEASURE_WITH_UNIT ( LENGTH_MEASURE( 0.02539999999999999900 ), #9 );
#182 = CARTESIAN_POINT ( 'NONE',  ( 0.0000000000000000000, 0.0000000000000000000, 0.0000000000000000000 ) ) ;
#183 = APPROVAL_PERSON_ORGANIZATION ( #96, #196, #184 ) ;
#184 = APPROVAL_ROLE ( '' ) ;
#185 = APPROVAL_DATE_TIME ( #146, #196 ) ;
#186 = VERTEX_POINT ( 'NONE', #19 ) ;
#187 = APPROVAL_STATUS ( 'not_yet_approved' ) ;
#188 = DIRECTION ( 'NONE',  ( 1.000000000000000000, 0.0000000000000000000, 0.0000000000000000000 ) ) ;
#189 = FACE_OUTER_BOUND ( 'NONE', #45, .T. ) ;
#190 = ORIENTED_EDGE ( 'NONE', *, *, #52, .F. ) ;
#191 = AXIS2_PLACEMENT_3D ( 'NONE', #155, #34, #55 ) ;
#192 = LOCAL_TIME ( 17, 4, 26.00000000000000000, #58 ) ;
#193 = COORDINATED_UNIVERSAL_TIME_OFFSET ( 8, 0, .BEHIND. ) ;
#194 = DIRECTION ( 'NONE',  ( 1.000000000000000000, 0.0000000000000000000, 3.491481338843133400E-015 ) ) ;
#195 = EDGE_CURVE ( 'NONE', #169, #88, #121, .T. ) ;
#196 = APPROVAL ( #187, 'UNSPECIFIED' ) ;
#197 = DIRECTION ( 'NONE',  ( 1.000000000000000000, 0.0000000000000000000, 0.0000000000000000000 ) ) ;
#198 = PERSON_AND_ORGANIZATION_ROLE ( 'design_owner' ) ;
#199 = SECURITY_CLASSIFICATION_LEVEL ( 'unclassified' ) ;
#200 = PERSON_AND_ORGANIZATION_ROLE ( 'creator' ) ;
#201 = ORIENTED_EDGE ( 'NONE', *, *, #26, .F. ) ;
#202 = ORIENTED_EDGE ( 'NONE', *, *, #52, .T. ) ;
#203 = APPROVAL_ROLE ( '' ) ;
#204 = DIRECTION ( 'NONE',  ( 1.021665192461056100E-029, -1.000000000000000000, -2.926165410351511300E-015 ) ) ;
#205 = CARTESIAN_POINT ( 'NONE',  ( 9.491012693391988500E-017, -1.550000000000000000, 0.0000000000000000000 ) ) ;
#206 = ORIENTED_EDGE ( 'NONE', *, *, #157, .F. ) ;
#207 = PERSON ( 'UNSPECIFIED', 'UNSPECIFIED', 'UNSPECIFIED', ('UNSPECIFIED'), ('UNSPECIFIED'), ('UNSPECIFIED') ) ;
#208 = DIRECTION ( 'NONE',  ( -0.0000000000000000000, 0.0000000000000000000, -1.000000000000000000 ) ) ;
#209 = ORIENTED_EDGE ( 'NONE', *, *, #51, .T. ) ;
#210 = SPHERICAL_SURFACE ( 'NONE', #161, 1.550000000000000000 ) ;
#211 = ORGANIZATION ( 'UNSPECIFIED', 'UNSPECIFIED', '' ) ;
#212 = SPHERICAL_SURFACE ( 'NONE', #129, 1.500000000000000200 ) ;
#213 = EDGE_CURVE ( 'NONE', #88, #27, #30, .T. ) ;
ENDSEC;
END-ISO-10303-21;
