ISO-10303-21;
HEADER;
FILE_DESCRIPTION (( 'STEP AP203' ),
    '1' );
FILE_NAME ('300904.STEP',
    '2017-01-13T01:07:58',
    ( 'temp' ),
    ( '' ),
    'SwSTEP 2.0',
    'SolidWorks 2016',
    '' );
FILE_SCHEMA (( 'CONFIG_CONTROL_DESIGN' ));
ENDSEC;

DATA;
#1 = EDGE_CURVE ( 'NONE', #94, #103, #140, .T. ) ;
#2 = DIMENSIONAL_EXPONENTS ( 1.000000000000000000, 0.0000000000000000000, 0.0000000000000000000, 0.0000000000000000000, 0.0000000000000000000, 0.0000000000000000000, 0.0000000000000000000 ) ;
#3 = EDGE_LOOP ( 'NONE', ( #92, #63, #50 ) ) ;
#4 = DIRECTION ( 'NONE',  ( 0.0000000000000000000, 0.0000000000000000000, 1.000000000000000000 ) ) ;
#5 = CIRCLE ( 'NONE', #95, 1.560000000000000300 ) ;
#6 = CARTESIAN_POINT ( 'NONE',  ( -5.237222008264700000E-015, -1.559999999999999800, 1.500000000000000200 ) ) ;
#7 = CC_DESIGN_PERSON_AND_ORGANIZATION_ASSIGNMENT ( #162, #81, ( #187 ) ) ;
#8 = FACE_OUTER_BOUND ( 'NONE', #104, .T. ) ;
#9 = LOCAL_TIME ( 17, 7, 58.00000000000000000, #52 ) ;
#10 = DIRECTION ( 'NONE',  ( 3.491481338843133000E-015, 0.0000000000000000000, -1.000000000000000000 ) ) ;
#11 = ORIENTED_EDGE ( 'NONE', *, *, #107, .F. ) ;
#12 = ORIENTED_EDGE ( 'NONE', *, *, #137, .F. ) ;
#13 = PERSON_AND_ORGANIZATION_ROLE ( 'design_supplier' ) ;
#14 = EDGE_CURVE ( 'NONE', #86, #43, #198, .T. ) ;
#15 = ORGANIZATION ( 'UNSPECIFIED', 'UNSPECIFIED', '' ) ;
#16 = VERTEX_POINT ( 'NONE', #82 ) ;
#17 = ORIENTED_EDGE ( 'NONE', *, *, #1, .F. ) ;
#18 = CC_DESIGN_DATE_AND_TIME_ASSIGNMENT ( #139, #193, ( #187 ) ) ;
#19 = CC_DESIGN_PERSON_AND_ORGANIZATION_ASSIGNMENT ( #30, #97, ( #87 ) ) ;
#20 = LOCAL_TIME ( 17, 7, 58.00000000000000000, #135 ) ;
#21 = SPHERICAL_SURFACE ( 'NONE', #146, 1.500000000000000200 ) ;
#22 = DIRECTION ( 'NONE',  ( 8.478244675126344800E-030, -1.000000000000000000, -2.428265785300036800E-015 ) ) ;
#23 = DIRECTION ( 'NONE',  ( 3.491481338843133000E-015, 0.0000000000000000000, -1.000000000000000000 ) ) ;
#24 = COORDINATED_UNIVERSAL_TIME_OFFSET ( 8, 0, .BEHIND. ) ;
#25 = UNCERTAINTY_MEASURE_WITH_UNIT (LENGTH_MEASURE( 1.000000000000000100E-005 ), #113, 'distance_accuracy_value', 'NONE');
#26 = PRODUCT_DEFINITION_FORMATION_WITH_SPECIFIED_SOURCE ( 'ANY', '', #66, .NOT_KNOWN. ) ;
#27 = DIRECTION ( 'NONE',  ( -0.0000000000000000000, 1.000000000000000000, -0.0000000000000000000 ) ) ;
#28 = CC_DESIGN_DATE_AND_TIME_ASSIGNMENT ( #170, #203, ( #87 ) ) ;
#29 = ORIENTED_EDGE ( 'NONE', *, *, #175, .T. ) ;
#30 = PERSON_AND_ORGANIZATION ( #49, #15 ) ;
#31 = APPROVAL_PERSON_ORGANIZATION ( #160, #37, #205 ) ;
#32 = ADVANCED_FACE ( 'NONE', ( #73 ), #118, .T. ) ;
#33 = ORIENTED_EDGE ( 'NONE', *, *, #185, .T. ) ;
#34 = LOCAL_TIME ( 17, 7, 58.00000000000000000, #161 ) ;
#35 = ORIENTED_EDGE ( 'NONE', *, *, #14, .T. ) ;
#36 = EDGE_CURVE ( 'NONE', #134, #43, #209, .T. ) ;
#37 = APPROVAL ( #101, 'UNSPECIFIED' ) ;
#38 = DIRECTION ( 'NONE',  ( 1.000000000000000000, 0.0000000000000000000, 3.491481338843133400E-015 ) ) ;
#39 = APPROVAL ( #188, 'UNSPECIFIED' ) ;
#40 = DIRECTION ( 'NONE',  ( -0.0000000000000000000, -0.0000000000000000000, -1.000000000000000000 ) ) ;
#41 = MECHANICAL_CONTEXT ( 'NONE', #91, 'mechanical' ) ;
#42 = DATE_AND_TIME ( #174, #9 ) ;
#43 = VERTEX_POINT ( 'NONE', #131 ) ;
#44 = CALENDAR_DATE ( 2017, 12, 1 ) ;
#45 = DIRECTION ( 'NONE',  ( 1.000000000000000000, 0.0000000000000000000, 3.491481338843133400E-015 ) ) ;
#46 = ORIENTED_EDGE ( 'NONE', *, *, #211, .T. ) ;
#47 = CARTESIAN_POINT ( 'NONE',  ( -3.335148527799627700E-031, -1.560000000000000100, 9.552245033349354800E-017 ) ) ;
#48 = LOCAL_TIME ( 17, 7, 58.00000000000000000, #24 ) ;
#49 = PERSON ( 'UNSPECIFIED', 'UNSPECIFIED', 'UNSPECIFIED', ('UNSPECIFIED'), ('UNSPECIFIED'), ('UNSPECIFIED') ) ;
#50 = ORIENTED_EDGE ( 'NONE', *, *, #14, .F. ) ;
#51 = ORIENTED_EDGE ( 'NONE', *, *, #137, .T. ) ;
#52 = COORDINATED_UNIVERSAL_TIME_OFFSET ( 8, 0, .BEHIND. ) ;
#53 = VECTOR ( 'NONE', #110, 39.37007874015748100 ) ;
#54 = CC_DESIGN_APPROVAL ( #37, ( #26 ) ) ;
#55 = EDGE_LOOP ( 'NONE', ( #78, #46, #11, #136 ) ) ;
#56 = CC_DESIGN_APPROVAL ( #39, ( #87 ) ) ;
#57 = PERSON_AND_ORGANIZATION ( #49, #15 ) ;
#58 = APPROVAL_PERSON_ORGANIZATION ( #148, #39, #59 ) ;
#59 = APPROVAL_ROLE ( '' ) ;
#60 = AXIS2_PLACEMENT_3D ( 'NONE', #208, #195, #179 ) ;
#61 = DIRECTION ( 'NONE',  ( -1.000000000000000000, 0.0000000000000000000, -3.491481338843133000E-015 ) ) ;
#62 = CALENDAR_DATE ( 2017, 12, 1 ) ;
#63 = ORIENTED_EDGE ( 'NONE', *, *, #36, .T. ) ;
#64 = CC_DESIGN_PERSON_AND_ORGANIZATION_ASSIGNMENT ( #57, #115, ( #26 ) ) ;
#65 = DIRECTION ( 'NONE',  ( 0.0000000000000000000, 0.0000000000000000000, 1.000000000000000000 ) ) ;
#66 = PRODUCT ( '300904', '300904', '', ( #41 ) ) ;
#67 = CC_DESIGN_SECURITY_CLASSIFICATION ( #87, ( #26 ) ) ;
#68 = ADVANCED_BREP_SHAPE_REPRESENTATION ( '300904', ( #129, #164 ), #190 ) ;
#69 = LINE ( 'NONE', #6, #53 ) ;
#70 = LINE ( 'NONE', #126, #178 ) ;
#71 = CIRCLE ( 'NONE', #117, 1.500000000000000200 ) ;
#72 = AXIS2_PLACEMENT_3D ( 'NONE', #200, #4, #88 ) ;
#73 = FACE_OUTER_BOUND ( 'NONE', #3, .T. ) ;
#74 = CALENDAR_DATE ( 2017, 12, 1 ) ;
#75 = DIRECTION ( 'NONE',  ( -0.0000000000000000000, 0.0000000000000000000, -1.000000000000000000 ) ) ;
#76 = CC_DESIGN_PERSON_AND_ORGANIZATION_ASSIGNMENT ( #112, #13, ( #26 ) ) ;
#77 = DIRECTION ( 'NONE',  ( 3.491481338843133000E-015, 0.0000000000000000000, -1.000000000000000000 ) ) ;
#78 = ORIENTED_EDGE ( 'NONE', *, *, #1, .T. ) ;
#79 = LINE ( 'NONE', #96, #212 ) ;
#80 = PRODUCT_RELATED_PRODUCT_CATEGORY ( 'detail', '', ( #66 ) ) ;
#81 = PERSON_AND_ORGANIZATION_ROLE ( 'creator' ) ;
#82 = CARTESIAN_POINT ( 'NONE',  ( 5.086946805075798400E-031, -0.05999999999999990800, -1.456959471180019700E-016 ) ) ;
#83 = DESIGN_CONTEXT ( 'detailed design', #99, 'design' ) ;
#84 = AXIS2_PLACEMENT_3D ( 'NONE', #47, #45, #144 ) ;
#85 = APPROVAL_PERSON_ORGANIZATION ( #158, #197, #191 ) ;
#86 = VERTEX_POINT ( 'NONE', #196 ) ;
#87 = SECURITY_CLASSIFICATION ( '', '', #130 ) ;
#88 = DIRECTION ( 'NONE',  ( -1.000000000000000000, 0.0000000000000000000, 0.0000000000000000000 ) ) ;
#89 = FACE_OUTER_BOUND ( 'NONE', #147, .T. ) ;
#90 = CARTESIAN_POINT ( 'NONE',  ( 0.0000000000000000000, 0.0000000000000000000, 0.0000000000000000000 ) ) ;
#91 = APPLICATION_CONTEXT ( 'configuration controlled 3d designs of mechanical parts and assemblies' ) ;
#92 = ORIENTED_EDGE ( 'NONE', *, *, #107, .T. ) ;
#93 =( LENGTH_UNIT ( ) NAMED_UNIT ( * ) SI_UNIT ( $, .METRE. ) );
#94 = VERTEX_POINT ( 'NONE', #102 ) ;
#95 = AXIS2_PLACEMENT_3D ( 'NONE', #207, #27, #65 ) ;
#96 = CARTESIAN_POINT ( 'NONE',  ( 0.0000000000000000000, 0.0000000000000000000, 0.0000000000000000000 ) ) ;
#97 = PERSON_AND_ORGANIZATION_ROLE ( 'classification_officer' ) ;
#98 = PRODUCT_DEFINITION_SHAPE ( 'NONE', 'NONE',  #187 ) ;
#99 = APPLICATION_CONTEXT ( 'configuration controlled 3d designs of mechanical parts and assemblies' ) ;
#100 = APPROVAL_DATE_TIME ( #122, #39 ) ;
#101 = APPROVAL_STATUS ( 'not_yet_approved' ) ;
#102 = CARTESIAN_POINT ( 'NONE',  ( -5.237222008264700000E-015, -1.559999999999999800, 1.500000000000000200 ) ) ;
#103 = VERTEX_POINT ( 'NONE', #116 ) ;
#104 = EDGE_LOOP ( 'NONE', ( #35, #29, #213, #33 ) ) ;
#105 = DIRECTION ( 'NONE',  ( -0.0000000000000000000, 1.000000000000000000, 0.0000000000000000000 ) ) ;
#106 = CARTESIAN_POINT ( 'NONE',  ( 0.0000000000000000000, -1.559999999999999800, 0.0000000000000000000 ) ) ;
#107 = EDGE_CURVE ( 'NONE', #86, #134, #5, .T. ) ;
#108 = CALENDAR_DATE ( 2017, 12, 1 ) ;
#109 = ADVANCED_FACE ( 'NONE', ( #111 ), #186, .F. ) ;
#110 = DIRECTION ( 'NONE',  ( -3.491481338843133000E-015, 0.0000000000000000000, 1.000000000000000000 ) ) ;
#111 = FACE_OUTER_BOUND ( 'NONE', #55, .T. ) ;
#112 = PERSON_AND_ORGANIZATION ( #49, #15 ) ;
#113 =( CONVERSION_BASED_UNIT ( 'INCH', #143 ) LENGTH_UNIT ( ) NAMED_UNIT ( #2 ) );
#114 = APPROVAL_STATUS ( 'not_yet_approved' ) ;
#115 = PERSON_AND_ORGANIZATION_ROLE ( 'creator' ) ;
#116 = CARTESIAN_POINT ( 'NONE',  ( 1.500000000000000200, -1.559999999999999800, 0.0000000000000000000 ) ) ;
#117 = AXIS2_PLACEMENT_3D ( 'NONE', #142, #40, #128 ) ;
#118 = SPHERICAL_SURFACE ( 'NONE', #84, 1.560000000000000300 ) ;
#119 = ORIENTED_EDGE ( 'NONE', *, *, #36, .F. ) ;
#120 = EDGE_LOOP ( 'NONE', ( #51, #17, #150 ) ) ;
#121 = DATE_AND_TIME ( #108, #184 ) ;
#122 = DATE_AND_TIME ( #74, #34 ) ;
#123 = PLANE ( 'NONE',  #165 ) ;
#124 = DIRECTION ( 'NONE',  ( 1.000000000000000000, 0.0000000000000000000, 0.0000000000000000000 ) ) ;
#125 = ORIENTED_EDGE ( 'NONE', *, *, #175, .F. ) ;
#126 = CARTESIAN_POINT ( 'NONE',  ( 1.500000000000000200, -1.559999999999999800, 0.0000000000000000000 ) ) ;
#127 = AXIS2_PLACEMENT_3D ( 'NONE', #180, #105, #133 ) ;
#128 = DIRECTION ( 'NONE',  ( -1.000000000000000000, 0.0000000000000000000, 0.0000000000000000000 ) ) ;
#129 = MANIFOLD_SOLID_BREP ( 'Revolve1', #210 ) ;
#130 = SECURITY_CLASSIFICATION_LEVEL ( 'unclassified' ) ;
#131 = CARTESIAN_POINT ( 'NONE',  ( 0.0000000000000000000, 0.0000000000000000000, 0.0000000000000000000 ) ) ;
#132 = APPROVAL_DATE_TIME ( #121, #197 ) ;
#133 = DIRECTION ( 'NONE',  ( 0.0000000000000000000, 0.0000000000000000000, 1.000000000000000000 ) ) ;
#134 = VERTEX_POINT ( 'NONE', #159 ) ;
#135 = COORDINATED_UNIVERSAL_TIME_OFFSET ( 8, 0, .BEHIND. ) ;
#136 = ORIENTED_EDGE ( 'NONE', *, *, #185, .F. ) ;
#137 = EDGE_CURVE ( 'NONE', #16, #103, #71, .T. ) ;
#138 = DIRECTION ( 'NONE',  ( -0.0000000000000000000, 1.000000000000000000, -0.0000000000000000000 ) ) ;
#139 = DATE_AND_TIME ( #62, #20 ) ;
#140 = CIRCLE ( 'NONE', #169, 1.500000000000000200 ) ;
#141 = CARTESIAN_POINT ( 'NONE',  ( -3.335148527799627700E-031, -1.560000000000000100, 9.552245033349354800E-017 ) ) ;
#142 = CARTESIAN_POINT ( 'NONE',  ( 9.552245033349354800E-017, -1.560000000000000100, 0.0000000000000000000 ) ) ;
#143 = LENGTH_MEASURE_WITH_UNIT ( LENGTH_MEASURE( 0.02539999999999999900 ), #93 );
#144 = DIRECTION ( 'NONE',  ( -3.491481338843133400E-015, 0.0000000000000000000, 1.000000000000000000 ) ) ;
#145 = CARTESIAN_POINT ( 'NONE',  ( -3.335148527799627700E-031, -1.560000000000000100, 9.552245033349354800E-017 ) ) ;
#146 = AXIS2_PLACEMENT_3D ( 'NONE', #154, #61, #23 ) ;
#147 = EDGE_LOOP ( 'NONE', ( #119, #168, #12, #125 ) ) ;
#148 = PERSON_AND_ORGANIZATION ( #49, #15 ) ;
#149 = COORDINATED_UNIVERSAL_TIME_OFFSET ( 8, 0, .BEHIND. ) ;
#150 = ORIENTED_EDGE ( 'NONE', *, *, #171, .F. ) ;
#151 = CARTESIAN_POINT ( 'NONE',  ( 9.552245033349354800E-017, -1.560000000000000100, 0.0000000000000000000 ) ) ;
#152 = APPROVAL_DATE_TIME ( #42, #37 ) ;
#153 = ADVANCED_FACE ( 'NONE', ( #194 ), #21, .F. ) ;
#154 = CARTESIAN_POINT ( 'NONE',  ( -3.335148527799627700E-031, -1.560000000000000100, 9.552245033349354800E-017 ) ) ;
#155 =( NAMED_UNIT ( * ) PLANE_ANGLE_UNIT ( ) SI_UNIT ( $, .RADIAN. ) );
#156 = PLANE ( 'NONE',  #199 ) ;
#157 = AXIS2_PLACEMENT_3D ( 'NONE', #141, #38, #10 ) ;
#158 = PERSON_AND_ORGANIZATION ( #49, #15 ) ;
#159 = CARTESIAN_POINT ( 'NONE',  ( 1.560000000000000300, -1.559999999999999800, 0.0000000000000000000 ) ) ;
#160 = PERSON_AND_ORGANIZATION ( #49, #15 ) ;
#161 = COORDINATED_UNIVERSAL_TIME_OFFSET ( 8, 0, .BEHIND. ) ;
#162 = PERSON_AND_ORGANIZATION ( #49, #15 ) ;
#163 = ADVANCED_FACE ( 'NONE', ( #8 ), #123, .F. ) ;
#164 = AXIS2_PLACEMENT_3D ( 'NONE', #90, #172, #201 ) ;
#165 = AXIS2_PLACEMENT_3D ( 'NONE', #145, #202, #77 ) ;
#166 = PERSON_AND_ORGANIZATION ( #49, #15 ) ;
#167 = DIRECTION ( 'NONE',  ( -1.000000000000000000, 0.0000000000000000000, 0.0000000000000000000 ) ) ;
#168 = ORIENTED_EDGE ( 'NONE', *, *, #211, .F. ) ;
#169 = AXIS2_PLACEMENT_3D ( 'NONE', #106, #138, #177 ) ;
#170 = DATE_AND_TIME ( #44, #48 ) ;
#171 = EDGE_CURVE ( 'NONE', #16, #94, #183, .T. ) ;
#172 = DIRECTION ( 'NONE',  ( 0.0000000000000000000, 0.0000000000000000000, 1.000000000000000000 ) ) ;
#173 = APPLICATION_PROTOCOL_DEFINITION ( 'international standard', 'config_control_design', 1994, #91 ) ;
#174 = CALENDAR_DATE ( 2017, 12, 1 ) ;
#175 = EDGE_CURVE ( 'NONE', #43, #16, #79, .T. ) ;
#176 = CC_DESIGN_PERSON_AND_ORGANIZATION_ASSIGNMENT ( #166, #192, ( #66 ) ) ;
#177 = DIRECTION ( 'NONE',  ( 0.0000000000000000000, 0.0000000000000000000, 1.000000000000000000 ) ) ;
#178 = VECTOR ( 'NONE', #124, 39.37007874015748100 ) ;
#179 = DIRECTION ( 'NONE',  ( 3.491481338843133400E-015, 0.0000000000000000000, -1.000000000000000000 ) ) ;
#180 = CARTESIAN_POINT ( 'NONE',  ( -5.237222008264700000E-015, -1.559999999999999800, 1.500000000000000200 ) ) ;
#181 = ADVANCED_FACE ( 'NONE', ( #89 ), #156, .T. ) ;
#182 = SHAPE_DEFINITION_REPRESENTATION ( #98, #68 ) ;
#183 = CIRCLE ( 'NONE', #157, 1.500000000000000200 ) ;
#184 = LOCAL_TIME ( 17, 7, 58.00000000000000000, #149 ) ;
#185 = EDGE_CURVE ( 'NONE', #94, #86, #69, .T. ) ;
#186 = PLANE ( 'NONE',  #127 ) ;
#187 = PRODUCT_DEFINITION ( 'UNKNOWN', '', #26, #83 ) ;
#188 = APPROVAL_STATUS ( 'not_yet_approved' ) ;
#189 =( NAMED_UNIT ( * ) SI_UNIT ( $, .STERADIAN. ) SOLID_ANGLE_UNIT ( ) );
#190 =( GEOMETRIC_REPRESENTATION_CONTEXT ( 3 ) GLOBAL_UNCERTAINTY_ASSIGNED_CONTEXT ( ( #25 ) ) GLOBAL_UNIT_ASSIGNED_CONTEXT ( ( #113, #155, #189 ) ) REPRESENTATION_CONTEXT ( 'NONE', 'WORKASPACE' ) );
#191 = APPROVAL_ROLE ( '' ) ;
#192 = PERSON_AND_ORGANIZATION_ROLE ( 'design_owner' ) ;
#193 = DATE_TIME_ROLE ( 'creation_date' ) ;
#194 = FACE_OUTER_BOUND ( 'NONE', #120, .T. ) ;
#195 = DIRECTION ( 'NONE',  ( -1.000000000000000000, 0.0000000000000000000, -3.491481338843133400E-015 ) ) ;
#196 = CARTESIAN_POINT ( 'NONE',  ( -5.446710888595289100E-015, -1.559999999999999800, 1.560000000000000300 ) ) ;
#197 = APPROVAL ( #114, 'UNSPECIFIED' ) ;
#198 = CIRCLE ( 'NONE', #60, 1.560000000000000300 ) ;
#199 = AXIS2_PLACEMENT_3D ( 'NONE', #151, #75, #167 ) ;
#200 = CARTESIAN_POINT ( 'NONE',  ( 9.552245033349354800E-017, -1.560000000000000100, 0.0000000000000000000 ) ) ;
#201 = DIRECTION ( 'NONE',  ( 1.000000000000000000, 0.0000000000000000000, 0.0000000000000000000 ) ) ;
#202 = DIRECTION ( 'NONE',  ( 1.000000000000000000, 0.0000000000000000000, 3.491481338843133000E-015 ) ) ;
#203 = DATE_TIME_ROLE ( 'classification_date' ) ;
#204 = APPLICATION_PROTOCOL_DEFINITION ( 'international standard', 'config_control_design', 1994, #99 ) ;
#205 = APPROVAL_ROLE ( '' ) ;
#206 = CC_DESIGN_APPROVAL ( #197, ( #187 ) ) ;
#207 = CARTESIAN_POINT ( 'NONE',  ( 0.0000000000000000000, -1.559999999999999800, 0.0000000000000000000 ) ) ;
#208 = CARTESIAN_POINT ( 'NONE',  ( -3.335148527799627700E-031, -1.560000000000000100, 9.552245033349354800E-017 ) ) ;
#209 = CIRCLE ( 'NONE', #72, 1.560000000000000300 ) ;
#210 = CLOSED_SHELL ( 'NONE', ( #32, #109, #153, #163, #181 ) ) ;
#211 = EDGE_CURVE ( 'NONE', #103, #134, #70, .T. ) ;
#212 = VECTOR ( 'NONE', #22, 39.37007874015748100 ) ;
#213 = ORIENTED_EDGE ( 'NONE', *, *, #171, .T. ) ;
ENDSEC;
END-ISO-10303-21;
