ISO-10303-21;
HEADER;
FILE_DESCRIPTION (( 'STEP AP203' ),
    '1' );
FILE_NAME ('300903.STEP',
    '2017-01-13T00:55:54',
    ( 'temp' ),
    ( '' ),
    'SwSTEP 2.0',
    'SolidWorks 2016',
    '' );
FILE_SCHEMA (( 'CONFIG_CONTROL_DESIGN' ));
ENDSEC;

DATA;
#1 = VERTEX_POINT ( 'NONE', #212 ) ;
#2 = AXIS2_PLACEMENT_3D ( 'NONE', #84, #199, #167 ) ;
#3 = LENGTH_MEASURE_WITH_UNIT ( LENGTH_MEASURE( 0.02539999999999999900 ), #13 );
#4 = LINE ( 'NONE', #182, #138 ) ;
#5 = DATE_TIME_ROLE ( 'classification_date' ) ;
#6 = PRODUCT_DEFINITION_SHAPE ( 'NONE', 'NONE',  #208 ) ;
#7 = APPROVAL ( #60, 'UNSPECIFIED' ) ;
#8 = ORIENTED_EDGE ( 'NONE', *, *, #37, .F. ) ;
#9 = AXIS2_PLACEMENT_3D ( 'NONE', #52, #16, #69 ) ;
#10 = SPHERICAL_SURFACE ( 'NONE', #19, 1.500000000000000200 ) ;
#11 = PLANE ( 'NONE',  #2 ) ;
#12 = CC_DESIGN_DATE_AND_TIME_ASSIGNMENT ( #170, #5, ( #172 ) ) ;
#13 =( LENGTH_UNIT ( ) NAMED_UNIT ( * ) SI_UNIT ( $, .METRE. ) );
#14 = PERSON_AND_ORGANIZATION ( #25, #166 ) ;
#15 = DATE_AND_TIME ( #181, #36 ) ;
#16 = DIRECTION ( 'NONE',  ( -0.0000000000000000000, -0.0000000000000000000, -1.000000000000000000 ) ) ;
#17 = ORIENTED_EDGE ( 'NONE', *, *, #50, .T. ) ;
#18 = APPROVAL ( #79, 'UNSPECIFIED' ) ;
#19 = AXIS2_PLACEMENT_3D ( 'NONE', #178, #29, #153 ) ;
#20 = ADVANCED_BREP_SHAPE_REPRESENTATION ( '300903', ( #136, #49 ), #203 ) ;
#21 = CARTESIAN_POINT ( 'NONE',  ( 1.549999999999999800, -1.549999999999999800, 0.0000000000000000000 ) ) ;
#22 = DIRECTION ( 'NONE',  ( -0.0000000000000000000, 0.0000000000000000000, -1.000000000000000000 ) ) ;
#23 = FACE_OUTER_BOUND ( 'NONE', #148, .T. ) ;
#24 = CC_DESIGN_PERSON_AND_ORGANIZATION_ASSIGNMENT ( #96, #73, ( #208 ) ) ;
#25 = PERSON ( 'UNSPECIFIED', 'UNSPECIFIED', 'UNSPECIFIED', ('UNSPECIFIED'), ('UNSPECIFIED'), ('UNSPECIFIED') ) ;
#26 = VERTEX_POINT ( 'NONE', #77 ) ;
#27 = CARTESIAN_POINT ( 'NONE',  ( 0.0000000000000000000, 0.0000000000000000000, 0.0000000000000000000 ) ) ;
#28 = DIRECTION ( 'NONE',  ( 1.000000000000000000, 0.0000000000000000000, 3.491481338843133400E-015 ) ) ;
#29 = DIRECTION ( 'NONE',  ( -1.000000000000000000, 0.0000000000000000000, -3.491481338843133000E-015 ) ) ;
#30 = APPROVAL_STATUS ( 'not_yet_approved' ) ;
#31 = PERSON_AND_ORGANIZATION ( #25, #166 ) ;
#32 = CC_DESIGN_DATE_AND_TIME_ASSIGNMENT ( #160, #124, ( #208 ) ) ;
#33 = CIRCLE ( 'NONE', #9, 1.500000000000000200 ) ;
#34 = PERSON_AND_ORGANIZATION_ROLE ( 'design_supplier' ) ;
#35 = ORIENTED_EDGE ( 'NONE', *, *, #127, .F. ) ;
#36 = LOCAL_TIME ( 16, 55, 54.00000000000000000, #105 ) ;
#37 = EDGE_CURVE ( 'NONE', #26, #155, #125, .T. ) ;
#38 = ORIENTED_EDGE ( 'NONE', *, *, #50, .F. ) ;
#39 = ORIENTED_EDGE ( 'NONE', *, *, #190, .T. ) ;
#40 = AXIS2_PLACEMENT_3D ( 'NONE', #144, #65, #187 ) ;
#41 = PLANE ( 'NONE',  #121 ) ;
#42 = CARTESIAN_POINT ( 'NONE',  ( -3.313769370570143400E-031, -1.550000000000000000, 9.491012693391988500E-017 ) ) ;
#43 = PERSON_AND_ORGANIZATION ( #25, #166 ) ;
#44 = LOCAL_TIME ( 16, 55, 54.00000000000000000, #211 ) ;
#45 = CC_DESIGN_APPROVAL ( #169, ( #208 ) ) ;
#46 = APPROVAL_DATE_TIME ( #15, #7 ) ;
#47 = EDGE_CURVE ( 'NONE', #68, #74, #193, .T. ) ;
#48 = APPROVAL_PERSON_ORGANIZATION ( #176, #169, #115 ) ;
#49 = AXIS2_PLACEMENT_3D ( 'NONE', #64, #112, #140 ) ;
#50 = EDGE_CURVE ( 'NONE', #74, #155, #177, .T. ) ;
#51 = DIRECTION ( 'NONE',  ( -1.000000000000000000, 0.0000000000000000000, 0.0000000000000000000 ) ) ;
#52 = CARTESIAN_POINT ( 'NONE',  ( 9.491012693391988500E-017, -1.550000000000000000, 0.0000000000000000000 ) ) ;
#53 = DIRECTION ( 'NONE',  ( 1.021665192461056100E-029, -1.000000000000000000, -2.926165410351511300E-015 ) ) ;
#54 = APPLICATION_CONTEXT ( 'configuration controlled 3d designs of mechanical parts and assemblies' ) ;
#55 = DATE_AND_TIME ( #86, #205 ) ;
#56 = ADVANCED_FACE ( 'NONE', ( #186 ), #10, .F. ) ;
#57 = DIRECTION ( 'NONE',  ( -0.0000000000000000000, 1.000000000000000000, -0.0000000000000000000 ) ) ;
#58 = CARTESIAN_POINT ( 'NONE',  ( -3.313769370570143400E-031, -1.550000000000000000, 9.491012693391988500E-017 ) ) ;
#59 = CALENDAR_DATE ( 2017, 12, 1 ) ;
#60 = APPROVAL_STATUS ( 'not_yet_approved' ) ;
#61 = FACE_OUTER_BOUND ( 'NONE', #80, .T. ) ;
#62 = ORIENTED_EDGE ( 'NONE', *, *, #37, .T. ) ;
#63 = CARTESIAN_POINT ( 'NONE',  ( 1.500000000000000200, -1.549999999999999800, 0.0000000000000000000 ) ) ;
#64 = CARTESIAN_POINT ( 'NONE',  ( 0.0000000000000000000, 0.0000000000000000000, 0.0000000000000000000 ) ) ;
#65 = DIRECTION ( 'NONE',  ( -0.0000000000000000000, 1.000000000000000000, -0.0000000000000000000 ) ) ;
#66 = ADVANCED_FACE ( 'NONE', ( #23 ), #209, .F. ) ;
#67 = DIRECTION ( 'NONE',  ( -1.000000000000000000, 0.0000000000000000000, -3.491481338843133400E-015 ) ) ;
#68 = VERTEX_POINT ( 'NONE', #131 ) ;
#69 = DIRECTION ( 'NONE',  ( -1.000000000000000000, 0.0000000000000000000, 0.0000000000000000000 ) ) ;
#70 = ORIENTED_EDGE ( 'NONE', *, *, #142, .T. ) ;
#71 = PERSON_AND_ORGANIZATION ( #25, #166 ) ;
#72 = SPHERICAL_SURFACE ( 'NONE', #118, 1.550000000000000000 ) ;
#73 = PERSON_AND_ORGANIZATION_ROLE ( 'creator' ) ;
#74 = VERTEX_POINT ( 'NONE', #63 ) ;
#75 = ORIENTED_EDGE ( 'NONE', *, *, #142, .F. ) ;
#76 = CC_DESIGN_APPROVAL ( #7, ( #172 ) ) ;
#77 = CARTESIAN_POINT ( 'NONE',  ( -5.411796075206856700E-015, -1.549999999999999800, 1.549999999999999800 ) ) ;
#78 = AXIS2_PLACEMENT_3D ( 'NONE', #42, #28, #150 ) ;
#79 = APPROVAL_STATUS ( 'not_yet_approved' ) ;
#80 = EDGE_LOOP ( 'NONE', ( #94, #38, #75, #35 ) ) ;
#81 = ORIENTED_EDGE ( 'NONE', *, *, #47, .T. ) ;
#82 = APPROVAL_DATE_TIME ( #55, #169 ) ;
#83 = SHAPE_DEFINITION_REPRESENTATION ( #6, #20 ) ;
#84 = CARTESIAN_POINT ( 'NONE',  ( -3.313769370570143400E-031, -1.550000000000000000, 9.491012693391988500E-017 ) ) ;
#85 = AXIS2_PLACEMENT_3D ( 'NONE', #204, #119, #197 ) ;
#86 = CALENDAR_DATE ( 2017, 12, 1 ) ;
#87 = VERTEX_POINT ( 'NONE', #27 ) ;
#88 = PERSON_AND_ORGANIZATION ( #25, #166 ) ;
#89 = CC_DESIGN_PERSON_AND_ORGANIZATION_ASSIGNMENT ( #43, #195, ( #134 ) ) ;
#90 = ORIENTED_EDGE ( 'NONE', *, *, #137, .F. ) ;
#91 = CIRCLE ( 'NONE', #185, 1.550000000000000000 ) ;
#92 = LOCAL_TIME ( 16, 55, 54.00000000000000000, #180 ) ;
#93 = UNCERTAINTY_MEASURE_WITH_UNIT (LENGTH_MEASURE( 1.000000000000000100E-005 ), #141, 'distance_accuracy_value', 'NONE');
#94 = ORIENTED_EDGE ( 'NONE', *, *, #190, .F. ) ;
#95 = CC_DESIGN_SECURITY_CLASSIFICATION ( #172, ( #134 ) ) ;
#96 = PERSON_AND_ORGANIZATION ( #25, #166 ) ;
#97 = DIRECTION ( 'NONE',  ( 0.0000000000000000000, 0.0000000000000000000, 1.000000000000000000 ) ) ;
#98 = ADVANCED_FACE ( 'NONE', ( #61 ), #41, .T. ) ;
#99 = ORIENTED_EDGE ( 'NONE', *, *, #213, .T. ) ;
#100 = DIMENSIONAL_EXPONENTS ( 1.000000000000000000, 0.0000000000000000000, 0.0000000000000000000, 0.0000000000000000000, 0.0000000000000000000, 0.0000000000000000000, 0.0000000000000000000 ) ;
#101 = MECHANICAL_CONTEXT ( 'NONE', #54, 'mechanical' ) ;
#102 = DESIGN_CONTEXT ( 'detailed design', #188, 'design' ) ;
#103 = CARTESIAN_POINT ( 'NONE',  ( 9.491012693391988500E-017, -1.550000000000000000, 0.0000000000000000000 ) ) ;
#104 = EDGE_LOOP ( 'NONE', ( #62, #39, #143 ) ) ;
#105 = COORDINATED_UNIVERSAL_TIME_OFFSET ( 8, 0, .BEHIND. ) ;
#106 = DIRECTION ( 'NONE',  ( 1.000000000000000000, 0.0000000000000000000, 3.491481338843133400E-015 ) ) ;
#107 = EDGE_LOOP ( 'NONE', ( #99, #196, #171, #113 ) ) ;
#108 = FACE_OUTER_BOUND ( 'NONE', #104, .T. ) ;
#109 = ORIENTED_EDGE ( 'NONE', *, *, #47, .F. ) ;
#110 = CLOSED_SHELL ( 'NONE', ( #210, #66, #56, #146, #98 ) ) ;
#111 = DIRECTION ( 'NONE',  ( 1.000000000000000000, 0.0000000000000000000, 0.0000000000000000000 ) ) ;
#112 = DIRECTION ( 'NONE',  ( 0.0000000000000000000, 0.0000000000000000000, 1.000000000000000000 ) ) ;
#113 = ORIENTED_EDGE ( 'NONE', *, *, #137, .T. ) ;
#114 = CC_DESIGN_PERSON_AND_ORGANIZATION_ASSIGNMENT ( #173, #116, ( #172 ) ) ;
#115 = APPROVAL_ROLE ( '' ) ;
#116 = PERSON_AND_ORGANIZATION_ROLE ( 'classification_officer' ) ;
#117 = LOCAL_TIME ( 16, 55, 54.00000000000000000, #135 ) ;
#118 = AXIS2_PLACEMENT_3D ( 'NONE', #58, #106, #129 ) ;
#119 = DIRECTION ( 'NONE',  ( -0.0000000000000000000, 1.000000000000000000, 0.0000000000000000000 ) ) ;
#120 = APPROVAL_ROLE ( '' ) ;
#121 = AXIS2_PLACEMENT_3D ( 'NONE', #103, #22, #152 ) ;
#122 = VECTOR ( 'NONE', #111, 39.37007874015748100 ) ;
#123 = APPROVAL_PERSON_ORGANIZATION ( #14, #18, #120 ) ;
#124 = DATE_TIME_ROLE ( 'creation_date' ) ;
#125 = CIRCLE ( 'NONE', #191, 1.549999999999999800 ) ;
#126 = DATE_AND_TIME ( #59, #117 ) ;
#127 = EDGE_CURVE ( 'NONE', #87, #1, #168, .T. ) ;
#128 = PRODUCT ( '300903', '300903', '', ( #101 ) ) ;
#129 = DIRECTION ( 'NONE',  ( -3.491481338843133400E-015, 0.0000000000000000000, 1.000000000000000000 ) ) ;
#130 = CC_DESIGN_PERSON_AND_ORGANIZATION_ASSIGNMENT ( #31, #192, ( #128 ) ) ;
#131 = CARTESIAN_POINT ( 'NONE',  ( -5.237222008264700000E-015, -1.549999999999999800, 1.500000000000000200 ) ) ;
#132 = CIRCLE ( 'NONE', #78, 1.500000000000000200 ) ;
#133 =( NAMED_UNIT ( * ) PLANE_ANGLE_UNIT ( ) SI_UNIT ( $, .RADIAN. ) );
#134 = PRODUCT_DEFINITION_FORMATION_WITH_SPECIFIED_SOURCE ( 'ANY', '', #128, .NOT_KNOWN. ) ;
#135 = COORDINATED_UNIVERSAL_TIME_OFFSET ( 8, 0, .BEHIND. ) ;
#136 = MANIFOLD_SOLID_BREP ( 'Revolve1', #110 ) ;
#137 = EDGE_CURVE ( 'NONE', #68, #26, #4, .T. ) ;
#138 = VECTOR ( 'NONE', #139, 39.37007874015748100 ) ;
#139 = DIRECTION ( 'NONE',  ( -3.491481338843133000E-015, 0.0000000000000000000, 1.000000000000000000 ) ) ;
#140 = DIRECTION ( 'NONE',  ( 1.000000000000000000, 0.0000000000000000000, 0.0000000000000000000 ) ) ;
#141 =( CONVERSION_BASED_UNIT ( 'INCH', #3 ) LENGTH_UNIT ( ) NAMED_UNIT ( #100 ) );
#142 = EDGE_CURVE ( 'NONE', #1, #74, #33, .T. ) ;
#143 = ORIENTED_EDGE ( 'NONE', *, *, #213, .F. ) ;
#144 = CARTESIAN_POINT ( 'NONE',  ( 0.0000000000000000000, -1.549999999999999800, 0.0000000000000000000 ) ) ;
#145 = APPROVAL_PERSON_ORGANIZATION ( #71, #7, #163 ) ;
#146 = ADVANCED_FACE ( 'NONE', ( #189 ), #11, .F. ) ;
#147 = DIRECTION ( 'NONE',  ( 0.0000000000000000000, 0.0000000000000000000, 1.000000000000000000 ) ) ;
#148 = EDGE_LOOP ( 'NONE', ( #81, #17, #8, #90 ) ) ;
#149 = ORIENTED_EDGE ( 'NONE', *, *, #202, .F. ) ;
#150 = DIRECTION ( 'NONE',  ( 3.491481338843133000E-015, 0.0000000000000000000, -1.000000000000000000 ) ) ;
#151 = CIRCLE ( 'NONE', #154, 1.550000000000000000 ) ;
#152 = DIRECTION ( 'NONE',  ( -1.000000000000000000, 0.0000000000000000000, 0.0000000000000000000 ) ) ;
#153 = DIRECTION ( 'NONE',  ( 3.491481338843133000E-015, 0.0000000000000000000, -1.000000000000000000 ) ) ;
#154 = AXIS2_PLACEMENT_3D ( 'NONE', #198, #147, #51 ) ;
#155 = VERTEX_POINT ( 'NONE', #21 ) ;
#156 = APPLICATION_PROTOCOL_DEFINITION ( 'international standard', 'config_control_design', 1994, #54 ) ;
#157 = CARTESIAN_POINT ( 'NONE',  ( -3.313769370570143400E-031, -1.550000000000000000, 9.491012693391988500E-017 ) ) ;
#158 = CARTESIAN_POINT ( 'NONE',  ( 0.0000000000000000000, 0.0000000000000000000, 0.0000000000000000000 ) ) ;
#159 = VECTOR ( 'NONE', #53, 39.37007874015748100 ) ;
#160 = DATE_AND_TIME ( #183, #92 ) ;
#161 = COORDINATED_UNIVERSAL_TIME_OFFSET ( 8, 0, .BEHIND. ) ;
#162 =( NAMED_UNIT ( * ) SI_UNIT ( $, .STERADIAN. ) SOLID_ANGLE_UNIT ( ) );
#163 = APPROVAL_ROLE ( '' ) ;
#164 = CC_DESIGN_PERSON_AND_ORGANIZATION_ASSIGNMENT ( #88, #34, ( #134 ) ) ;
#165 = CALENDAR_DATE ( 2017, 12, 1 ) ;
#166 = ORGANIZATION ( 'UNSPECIFIED', 'UNSPECIFIED', '' ) ;
#167 = DIRECTION ( 'NONE',  ( 3.491481338843133000E-015, 0.0000000000000000000, -1.000000000000000000 ) ) ;
#168 = LINE ( 'NONE', #158, #159 ) ;
#169 = APPROVAL ( #30, 'UNSPECIFIED' ) ;
#170 = DATE_AND_TIME ( #165, #44 ) ;
#171 = ORIENTED_EDGE ( 'NONE', *, *, #202, .T. ) ;
#172 = SECURITY_CLASSIFICATION ( '', '', #207 ) ;
#173 = PERSON_AND_ORGANIZATION ( #25, #166 ) ;
#174 = APPROVAL_DATE_TIME ( #126, #18 ) ;
#175 = CARTESIAN_POINT ( 'NONE',  ( 0.0000000000000000000, -1.549999999999999800, 0.0000000000000000000 ) ) ;
#176 = PERSON_AND_ORGANIZATION ( #25, #166 ) ;
#177 = LINE ( 'NONE', #194, #122 ) ;
#178 = CARTESIAN_POINT ( 'NONE',  ( -3.313769370570143400E-031, -1.550000000000000000, 9.491012693391988500E-017 ) ) ;
#179 = DIRECTION ( 'NONE',  ( 3.491481338843133700E-015, 0.0000000000000000000, -1.000000000000000000 ) ) ;
#180 = COORDINATED_UNIVERSAL_TIME_OFFSET ( 8, 0, .BEHIND. ) ;
#181 = CALENDAR_DATE ( 2017, 12, 1 ) ;
#182 = CARTESIAN_POINT ( 'NONE',  ( -5.237222008264700000E-015, -1.549999999999999800, 1.500000000000000200 ) ) ;
#183 = CALENDAR_DATE ( 2017, 12, 1 ) ;
#184 = APPLICATION_PROTOCOL_DEFINITION ( 'international standard', 'config_control_design', 1994, #188 ) ;
#185 = AXIS2_PLACEMENT_3D ( 'NONE', #157, #67, #179 ) ;
#186 = FACE_OUTER_BOUND ( 'NONE', #201, .T. ) ;
#187 = DIRECTION ( 'NONE',  ( 0.0000000000000000000, 0.0000000000000000000, 1.000000000000000000 ) ) ;
#188 = APPLICATION_CONTEXT ( 'configuration controlled 3d designs of mechanical parts and assemblies' ) ;
#189 = FACE_OUTER_BOUND ( 'NONE', #107, .T. ) ;
#190 = EDGE_CURVE ( 'NONE', #155, #87, #151, .T. ) ;
#191 = AXIS2_PLACEMENT_3D ( 'NONE', #175, #57, #97 ) ;
#192 = PERSON_AND_ORGANIZATION_ROLE ( 'design_owner' ) ;
#193 = CIRCLE ( 'NONE', #40, 1.500000000000000200 ) ;
#194 = CARTESIAN_POINT ( 'NONE',  ( 1.500000000000000200, -1.549999999999999800, 0.0000000000000000000 ) ) ;
#195 = PERSON_AND_ORGANIZATION_ROLE ( 'creator' ) ;
#196 = ORIENTED_EDGE ( 'NONE', *, *, #127, .T. ) ;
#197 = DIRECTION ( 'NONE',  ( 0.0000000000000000000, 0.0000000000000000000, 1.000000000000000000 ) ) ;
#198 = CARTESIAN_POINT ( 'NONE',  ( 9.491012693391988500E-017, -1.550000000000000000, 0.0000000000000000000 ) ) ;
#199 = DIRECTION ( 'NONE',  ( 1.000000000000000000, 0.0000000000000000000, 3.491481338843133000E-015 ) ) ;
#200 = PRODUCT_RELATED_PRODUCT_CATEGORY ( 'detail', '', ( #128 ) ) ;
#201 = EDGE_LOOP ( 'NONE', ( #70, #109, #149 ) ) ;
#202 = EDGE_CURVE ( 'NONE', #1, #68, #132, .T. ) ;
#203 =( GEOMETRIC_REPRESENTATION_CONTEXT ( 3 ) GLOBAL_UNCERTAINTY_ASSIGNED_CONTEXT ( ( #93 ) ) GLOBAL_UNIT_ASSIGNED_CONTEXT ( ( #141, #133, #162 ) ) REPRESENTATION_CONTEXT ( 'NONE', 'WORKASPACE' ) );
#204 = CARTESIAN_POINT ( 'NONE',  ( -5.237222008264700000E-015, -1.549999999999999800, 1.500000000000000200 ) ) ;
#205 = LOCAL_TIME ( 16, 55, 54.00000000000000000, #161 ) ;
#206 = CC_DESIGN_APPROVAL ( #18, ( #134 ) ) ;
#207 = SECURITY_CLASSIFICATION_LEVEL ( 'unclassified' ) ;
#208 = PRODUCT_DEFINITION ( 'UNKNOWN', '', #134, #102 ) ;
#209 = PLANE ( 'NONE',  #85 ) ;
#210 = ADVANCED_FACE ( 'NONE', ( #108 ), #72, .T. ) ;
#211 = COORDINATED_UNIVERSAL_TIME_OFFSET ( 8, 0, .BEHIND. ) ;
#212 = CARTESIAN_POINT ( 'NONE',  ( 5.108325962305281400E-031, -0.05000000000000001000, -1.463082705175756000E-016 ) ) ;
#213 = EDGE_CURVE ( 'NONE', #26, #87, #91, .T. ) ;
ENDSEC;
END-ISO-10303-21;
