ISO-10303-21;
HEADER;
FILE_DESCRIPTION (( 'STEP AP214' ),
    '1' );
FILE_NAME ('300505.STEP',
    '2017-01-16T23:26:04',
    ( 'temp' ),
    ( '' ),
    'SwSTEP 2.0',
    'SolidWorks 2016',
    '' );
FILE_SCHEMA (( 'AUTOMOTIVE_DESIGN' ));
ENDSEC;

DATA;
#1 =( LENGTH_UNIT ( ) NAMED_UNIT ( * ) SI_UNIT ( $, .METRE. ) );
#2 = VERTEX_POINT ( 'NONE', #180 ) ;
#3 = CIRCLE ( 'NONE', #12, 1.500000000000000400 ) ;
#4 = FILL_AREA_STYLE_COLOUR ( '', #104 ) ;
#5 = ORIENTED_EDGE ( 'NONE', *, *, #87, .T. ) ;
#6 =( GEOMETRIC_REPRESENTATION_CONTEXT ( 3 ) GLOBAL_UNCERTAINTY_ASSIGNED_CONTEXT ( ( #108 ) ) GLOBAL_UNIT_ASSIGNED_CONTEXT ( ( #124, #14, #44 ) ) REPRESENTATION_CONTEXT ( 'NONE', 'WORKASPACE' ) );
#7 = FACE_OUTER_BOUND ( 'NONE', #131, .T. ) ;
#8 = DIMENSIONAL_EXPONENTS ( 1.000000000000000000, 0.0000000000000000000, 0.0000000000000000000, 0.0000000000000000000, 0.0000000000000000000, 0.0000000000000000000, 0.0000000000000000000 ) ;
#9 = PRODUCT_DEFINITION ( 'UNKNOWN', '', #117, #31 ) ;
#10 = ORIENTED_EDGE ( 'NONE', *, *, #105, .F. ) ;
#11 = VECTOR ( 'NONE', #174, 39.37007874015748100 ) ;
#12 = AXIS2_PLACEMENT_3D ( 'NONE', #181, #166, #160 ) ;
#13 = DIRECTION ( 'NONE',  ( 3.491481338843133400E-015, 0.0000000000000000000, -1.000000000000000000 ) ) ;
#14 =( NAMED_UNIT ( * ) PLANE_ANGLE_UNIT ( ) SI_UNIT ( $, .RADIAN. ) );
#15 = DIRECTION ( 'NONE',  ( -0.0000000000000000000, 1.000000000000000000, -0.0000000000000000000 ) ) ;
#16 = DIRECTION ( 'NONE',  ( 1.000000000000000000, 0.0000000000000000000, 3.491481338843133400E-015 ) ) ;
#17 = CARTESIAN_POINT ( 'NONE',  ( 1.590000000000000100, -1.590000000000000100, 0.0000000000000000000 ) ) ;
#18 = CARTESIAN_POINT ( 'NONE',  ( -3.399285999488083100E-031, -1.590000000000000300, 9.735942053221459900E-017 ) ) ;
#19 = CARTESIAN_POINT ( 'NONE',  ( 1.500000000000000400, -1.590000000000000100, 0.0000000000000000000 ) ) ;
#20 = DIRECTION ( 'NONE',  ( -0.0000000000000000000, 1.000000000000000000, 0.0000000000000000000 ) ) ;
#21 = SURFACE_STYLE_FILL_AREA ( #142 ) ;
#22 = CARTESIAN_POINT ( 'NONE',  ( -3.399285999488083100E-031, -1.590000000000000300, 9.735942053221459900E-017 ) ) ;
#23 = DIRECTION ( 'NONE',  ( 0.0000000000000000000, 0.0000000000000000000, 1.000000000000000000 ) ) ;
#24 = DIRECTION ( 'NONE',  ( 1.000000000000000000, 0.0000000000000000000, 0.0000000000000000000 ) ) ;
#25 = ORIENTED_EDGE ( 'NONE', *, *, #123, .T. ) ;
#26 = VECTOR ( 'NONE', #24, 39.37007874015748100 ) ;
#27 = EDGE_CURVE ( 'NONE', #97, #140, #46, .T. ) ;
#28 = EDGE_LOOP ( 'NONE', ( #5, #42, #139 ) ) ;
#29 = ORIENTED_EDGE ( 'NONE', *, *, #123, .F. ) ;
#30 = EDGE_CURVE ( 'NONE', #138, #140, #62, .T. ) ;
#31 = PRODUCT_DEFINITION_CONTEXT ( 'detailed design', #115, 'design' ) ;
#32 =( GEOMETRIC_REPRESENTATION_CONTEXT ( 3 ) GLOBAL_UNCERTAINTY_ASSIGNED_CONTEXT ( ( #151 ) ) GLOBAL_UNIT_ASSIGNED_CONTEXT ( ( #106, #145, #58 ) ) REPRESENTATION_CONTEXT ( 'NONE', 'WORKASPACE' ) );
#33 = ORIENTED_EDGE ( 'NONE', *, *, #92, .F. ) ;
#34 = DIRECTION ( 'NONE',  ( -1.000000000000000000, 0.0000000000000000000, -3.491481338843133400E-015 ) ) ;
#35 = DIRECTION ( 'NONE',  ( -1.000000000000000000, 0.0000000000000000000, 0.0000000000000000000 ) ) ;
#36 = DIRECTION ( 'NONE',  ( 1.000000000000000000, 0.0000000000000000000, 3.491481338843133400E-015 ) ) ;
#37 = STYLED_ITEM ( 'NONE', ( #79 ), #127 ) ;
#38 = PRODUCT_DEFINITION_SHAPE ( 'NONE', 'NONE',  #9 ) ;
#39 = SURFACE_STYLE_USAGE ( .BOTH. , #68 ) ;
#40 = CARTESIAN_POINT ( 'NONE',  ( 0.0000000000000000000, 0.0000000000000000000, 0.0000000000000000000 ) ) ;
#41 = PLANE ( 'NONE',  #59 ) ;
#42 = ORIENTED_EDGE ( 'NONE', *, *, #157, .F. ) ;
#43 = MANIFOLD_SOLID_BREP ( 'Revolve1', #141 ) ;
#44 =( NAMED_UNIT ( * ) SI_UNIT ( $, .STERADIAN. ) SOLID_ANGLE_UNIT ( ) );
#45 = ORIENTED_EDGE ( 'NONE', *, *, #157, .T. ) ;
#46 = CIRCLE ( 'NONE', #47, 1.590000000000000300 ) ;
#47 = AXIS2_PLACEMENT_3D ( 'NONE', #18, #34, #13 ) ;
#48 = DIRECTION ( 'NONE',  ( -0.0000000000000000000, -0.0000000000000000000, -1.000000000000000000 ) ) ;
#49 = SURFACE_STYLE_FILL_AREA ( #103 ) ;
#50 = CARTESIAN_POINT ( 'NONE',  ( -3.399285999488083100E-031, -1.590000000000000300, 9.735942053221459900E-017 ) ) ;
#51 = APPLICATION_CONTEXT ( 'automotive_design' ) ;
#52 = ORIENTED_EDGE ( 'NONE', *, *, #65, .T. ) ;
#53 = PLANE ( 'NONE',  #173 ) ;
#54 = DIRECTION ( 'NONE',  ( 3.491481338843133000E-015, 0.0000000000000000000, -1.000000000000000000 ) ) ;
#55 = CARTESIAN_POINT ( 'NONE',  ( 9.735942053221459900E-017, -1.590000000000000300, 0.0000000000000000000 ) ) ;
#56 = CARTESIAN_POINT ( 'NONE',  ( -5.237222008264700800E-015, -1.590000000000000100, 1.500000000000000400 ) ) ;
#57 =( GEOMETRIC_REPRESENTATION_CONTEXT ( 3 ) GLOBAL_UNCERTAINTY_ASSIGNED_CONTEXT ( ( #183 ) ) GLOBAL_UNIT_ASSIGNED_CONTEXT ( ( #150, #128, #126 ) ) REPRESENTATION_CONTEXT ( 'NONE', 'WORKASPACE' ) );
#58 =( NAMED_UNIT ( * ) SI_UNIT ( $, .STERADIAN. ) SOLID_ANGLE_UNIT ( ) );
#59 = AXIS2_PLACEMENT_3D ( 'NONE', #56, #20, #182 ) ;
#60 = APPLICATION_PROTOCOL_DEFINITION ( 'draft international standard', 'automotive_design', 1998, #51 ) ;
#61 = CARTESIAN_POINT ( 'NONE',  ( 9.735942053221459900E-017, -1.590000000000000300, 0.0000000000000000000 ) ) ;
#62 = CIRCLE ( 'NONE', #81, 1.590000000000000300 ) ;
#63 = FACE_OUTER_BOUND ( 'NONE', #109, .T. ) ;
#64 = APPLICATION_PROTOCOL_DEFINITION ( 'draft international standard', 'automotive_design', 1998, #115 ) ;
#65 = EDGE_CURVE ( 'NONE', #75, #138, #161, .T. ) ;
#66 = ORIENTED_EDGE ( 'NONE', *, *, #27, .F. ) ;
#67 = SPHERICAL_SURFACE ( 'NONE', #168, 1.500000000000000400 ) ;
#68 = SURFACE_SIDE_STYLE ('',( #49 ) ) ;
#69 = PRESENTATION_LAYER_ASSIGNMENT (  '', '', ( #107 ) ) ;
#70 = LINE ( 'NONE', #169, #11 ) ;
#71 = CARTESIAN_POINT ( 'NONE',  ( -3.399285999488083100E-031, -1.590000000000000300, 9.735942053221459900E-017 ) ) ;
#72 = DIRECTION ( 'NONE',  ( -0.0000000000000000000, 0.0000000000000000000, -1.000000000000000000 ) ) ;
#73 = CARTESIAN_POINT ( 'NONE',  ( -3.399285999488083100E-031, -1.590000000000000300, 9.735942053221459900E-017 ) ) ;
#74 = LINE ( 'NONE', #159, #156 ) ;
#75 = VERTEX_POINT ( 'NONE', #19 ) ;
#76 = ADVANCED_FACE ( 'NONE', ( #133 ), #67, .F. ) ;
#77 = PRODUCT_CONTEXT ( 'NONE', #51, 'mechanical' ) ;
#78 = DIRECTION ( 'NONE',  ( 1.000000000000000000, 0.0000000000000000000, 0.0000000000000000000 ) ) ;
#79 = PRESENTATION_STYLE_ASSIGNMENT (( #99 ) ) ;
#80 = ORIENTED_EDGE ( 'NONE', *, *, #30, .T. ) ;
#81 = AXIS2_PLACEMENT_3D ( 'NONE', #61, #179, #162 ) ;
#82 = PLANE ( 'NONE',  #122 ) ;
#83 = ORIENTED_EDGE ( 'NONE', *, *, #87, .F. ) ;
#84 = CARTESIAN_POINT ( 'NONE',  ( 9.735942053221459900E-017, -1.590000000000000300, 0.0000000000000000000 ) ) ;
#85 = ORIENTED_EDGE ( 'NONE', *, *, #92, .T. ) ;
#86 = ORIENTED_EDGE ( 'NONE', *, *, #30, .F. ) ;
#87 = EDGE_CURVE ( 'NONE', #164, #75, #102, .T. ) ;
#88 = EDGE_LOOP ( 'NONE', ( #86, #137, #83, #33 ) ) ;
#89 =( LENGTH_UNIT ( ) NAMED_UNIT ( * ) SI_UNIT ( $, .METRE. ) );
#90 = MECHANICAL_DESIGN_GEOMETRIC_PRESENTATION_REPRESENTATION (  '', ( #107 ), #6 ) ;
#91 = COLOUR_RGB ( '',0.6470588235294118000, 0.6196078431372549200, 0.5882352941176470800 ) ;
#92 = EDGE_CURVE ( 'NONE', #140, #164, #74, .T. ) ;
#93 = ORIENTED_EDGE ( 'NONE', *, *, #27, .T. ) ;
#94 = ADVANCED_FACE ( 'NONE', ( #167 ), #41, .F. ) ;
#95 = DIRECTION ( 'NONE',  ( -1.000000000000000000, 0.0000000000000000000, -3.491481338843133000E-015 ) ) ;
#96 = EDGE_LOOP ( 'NONE', ( #45, #52, #10, #29 ) ) ;
#97 = VERTEX_POINT ( 'NONE', #152 ) ;
#98 = DIMENSIONAL_EXPONENTS ( 1.000000000000000000, 0.0000000000000000000, 0.0000000000000000000, 0.0000000000000000000, 0.0000000000000000000, 0.0000000000000000000, 0.0000000000000000000 ) ;
#99 = SURFACE_STYLE_USAGE ( .BOTH. , #118 ) ;
#100 = DIRECTION ( 'NONE',  ( 3.491481338843133000E-015, 0.0000000000000000000, -1.000000000000000000 ) ) ;
#101 = ADVANCED_FACE ( 'NONE', ( #63 ), #171, .T. ) ;
#102 = CIRCLE ( 'NONE', #178, 1.500000000000000400 ) ;
#103 = FILL_AREA_STYLE ('',( #4 ) ) ;
#104 = COLOUR_RGB ( '',0.6470588235294118000, 0.6196078431372549200, 0.5882352941176470800 ) ;
#105 = EDGE_CURVE ( 'NONE', #97, #138, #111, .T. ) ;
#106 =( CONVERSION_BASED_UNIT ( 'INCH', #184 ) LENGTH_UNIT ( ) NAMED_UNIT ( #172 ) );
#107 = STYLED_ITEM ( 'NONE', ( #113 ), #43 ) ;
#108 = UNCERTAINTY_MEASURE_WITH_UNIT (LENGTH_MEASURE( 1.000000000000000100E-005 ), #124, 'distance_accuracy_value', 'NONE');
#109 = EDGE_LOOP ( 'NONE', ( #147, #80, #66 ) ) ;
#110 =( LENGTH_UNIT ( ) NAMED_UNIT ( * ) SI_UNIT ( $, .METRE. ) );
#111 = CIRCLE ( 'NONE', #149, 1.590000000000000100 ) ;
#112 = DIRECTION ( 'NONE',  ( 3.491481338843133000E-015, 0.0000000000000000000, -1.000000000000000000 ) ) ;
#113 = PRESENTATION_STYLE_ASSIGNMENT (( #39 ) ) ;
#114 = DIRECTION ( 'NONE',  ( 1.000000000000000000, 0.0000000000000000000, 3.491481338843133000E-015 ) ) ;
#115 = APPLICATION_CONTEXT ( 'automotive_design' ) ;
#116 = DIRECTION ( 'NONE',  ( -1.000000000000000000, 0.0000000000000000000, 0.0000000000000000000 ) ) ;
#117 = PRODUCT_DEFINITION_FORMATION_WITH_SPECIFIED_SOURCE ( 'ANY', '', #129, .NOT_KNOWN. ) ;
#118 = SURFACE_SIDE_STYLE ('',( #21 ) ) ;
#119 = AXIS2_PLACEMENT_3D ( 'NONE', #50, #36, #100 ) ;
#120 = CARTESIAN_POINT ( 'NONE',  ( 1.500000000000000400, -1.590000000000000100, 0.0000000000000000000 ) ) ;
#121 = SHAPE_DEFINITION_REPRESENTATION ( #38, #127 ) ;
#122 = AXIS2_PLACEMENT_3D ( 'NONE', #71, #114, #54 ) ;
#123 = EDGE_CURVE ( 'NONE', #2, #97, #70, .T. ) ;
#124 =( CONVERSION_BASED_UNIT ( 'INCH', #155 ) LENGTH_UNIT ( ) NAMED_UNIT ( #8 ) );
#125 = FILL_AREA_STYLE_COLOUR ( '', #91 ) ;
#126 =( NAMED_UNIT ( * ) SI_UNIT ( $, .STERADIAN. ) SOLID_ANGLE_UNIT ( ) );
#127 = ADVANCED_BREP_SHAPE_REPRESENTATION ( '300505', ( #43, #154 ), #32 ) ;
#128 =( NAMED_UNIT ( * ) PLANE_ANGLE_UNIT ( ) SI_UNIT ( $, .RADIAN. ) );
#129 = PRODUCT ( '300505', '300505', '', ( #77 ) ) ;
#130 = PRESENTATION_LAYER_ASSIGNMENT (  '', '', ( #37 ) ) ;
#131 = EDGE_LOOP ( 'NONE', ( #93, #85, #163, #25 ) ) ;
#132 = PRODUCT_RELATED_PRODUCT_CATEGORY ( 'part', '', ( #129 ) ) ;
#133 = FACE_OUTER_BOUND ( 'NONE', #28, .T. ) ;
#134 = CIRCLE ( 'NONE', #119, 1.500000000000000400 ) ;
#135 = MECHANICAL_DESIGN_GEOMETRIC_PRESENTATION_REPRESENTATION (  '', ( #37 ), #57 ) ;
#136 = AXIS2_PLACEMENT_3D ( 'NONE', #22, #16, #175 ) ;
#137 = ORIENTED_EDGE ( 'NONE', *, *, #65, .F. ) ;
#138 = VERTEX_POINT ( 'NONE', #17 ) ;
#139 = ORIENTED_EDGE ( 'NONE', *, *, #177, .F. ) ;
#140 = VERTEX_POINT ( 'NONE', #40 ) ;
#141 = CLOSED_SHELL ( 'NONE', ( #101, #94, #76, #153, #158 ) ) ;
#142 = FILL_AREA_STYLE ('',( #125 ) ) ;
#143 = DIRECTION ( 'NONE',  ( 0.0000000000000000000, 0.0000000000000000000, 1.000000000000000000 ) ) ;
#144 = CARTESIAN_POINT ( 'NONE',  ( 5.022809333387344200E-031, -0.08999999999999985800, -1.438589769192809500E-016 ) ) ;
#145 =( NAMED_UNIT ( * ) PLANE_ANGLE_UNIT ( ) SI_UNIT ( $, .RADIAN. ) );
#146 = FACE_OUTER_BOUND ( 'NONE', #88, .T. ) ;
#147 = ORIENTED_EDGE ( 'NONE', *, *, #105, .T. ) ;
#148 = CARTESIAN_POINT ( 'NONE',  ( 0.0000000000000000000, -1.590000000000000100, 0.0000000000000000000 ) ) ;
#149 = AXIS2_PLACEMENT_3D ( 'NONE', #148, #15, #143 ) ;
#150 =( CONVERSION_BASED_UNIT ( 'INCH', #165 ) LENGTH_UNIT ( ) NAMED_UNIT ( #98 ) );
#151 = UNCERTAINTY_MEASURE_WITH_UNIT (LENGTH_MEASURE( 1.000000000000000100E-005 ), #106, 'distance_accuracy_value', 'NONE');
#152 = CARTESIAN_POINT ( 'NONE',  ( -5.551455328760582500E-015, -1.590000000000000100, 1.590000000000000100 ) ) ;
#153 = ADVANCED_FACE ( 'NONE', ( #7 ), #82, .F. ) ;
#154 = AXIS2_PLACEMENT_3D ( 'NONE', #170, #23, #78 ) ;
#155 = LENGTH_MEASURE_WITH_UNIT ( LENGTH_MEASURE( 0.02539999999999999900 ), #110 );
#156 = VECTOR ( 'NONE', #176, 39.37007874015748100 ) ;
#157 = EDGE_CURVE ( 'NONE', #2, #75, #3, .T. ) ;
#158 = ADVANCED_FACE ( 'NONE', ( #146 ), #53, .T. ) ;
#159 = CARTESIAN_POINT ( 'NONE',  ( 0.0000000000000000000, 0.0000000000000000000, 0.0000000000000000000 ) ) ;
#160 = DIRECTION ( 'NONE',  ( 0.0000000000000000000, 0.0000000000000000000, 1.000000000000000000 ) ) ;
#161 = LINE ( 'NONE', #120, #26 ) ;
#162 = DIRECTION ( 'NONE',  ( -1.000000000000000000, 0.0000000000000000000, 0.0000000000000000000 ) ) ;
#163 = ORIENTED_EDGE ( 'NONE', *, *, #177, .T. ) ;
#164 = VERTEX_POINT ( 'NONE', #144 ) ;
#165 = LENGTH_MEASURE_WITH_UNIT ( LENGTH_MEASURE( 0.02539999999999999900 ), #1 );
#166 = DIRECTION ( 'NONE',  ( -0.0000000000000000000, 1.000000000000000000, -0.0000000000000000000 ) ) ;
#167 = FACE_OUTER_BOUND ( 'NONE', #96, .T. ) ;
#168 = AXIS2_PLACEMENT_3D ( 'NONE', #73, #95, #112 ) ;
#169 = CARTESIAN_POINT ( 'NONE',  ( -5.237222008264700800E-015, -1.590000000000000100, 1.500000000000000400 ) ) ;
#170 = CARTESIAN_POINT ( 'NONE',  ( 0.0000000000000000000, 0.0000000000000000000, 0.0000000000000000000 ) ) ;
#171 = SPHERICAL_SURFACE ( 'NONE', #136, 1.590000000000000300 ) ;
#172 = DIMENSIONAL_EXPONENTS ( 1.000000000000000000, 0.0000000000000000000, 0.0000000000000000000, 0.0000000000000000000, 0.0000000000000000000, 0.0000000000000000000, 0.0000000000000000000 ) ;
#173 = AXIS2_PLACEMENT_3D ( 'NONE', #55, #72, #116 ) ;
#174 = DIRECTION ( 'NONE',  ( -3.491481338843133000E-015, 0.0000000000000000000, 1.000000000000000000 ) ) ;
#175 = DIRECTION ( 'NONE',  ( -3.491481338843133400E-015, 0.0000000000000000000, 1.000000000000000000 ) ) ;
#176 = DIRECTION ( 'NONE',  ( 5.580899259319280100E-030, -1.000000000000000000, -1.598433076880901800E-015 ) ) ;
#177 = EDGE_CURVE ( 'NONE', #164, #2, #134, .T. ) ;
#178 = AXIS2_PLACEMENT_3D ( 'NONE', #84, #48, #35 ) ;
#179 = DIRECTION ( 'NONE',  ( 0.0000000000000000000, 0.0000000000000000000, 1.000000000000000000 ) ) ;
#180 = CARTESIAN_POINT ( 'NONE',  ( -5.237222008264700800E-015, -1.590000000000000100, 1.500000000000000400 ) ) ;
#181 = CARTESIAN_POINT ( 'NONE',  ( 0.0000000000000000000, -1.590000000000000100, 0.0000000000000000000 ) ) ;
#182 = DIRECTION ( 'NONE',  ( 0.0000000000000000000, 0.0000000000000000000, 1.000000000000000000 ) ) ;
#183 = UNCERTAINTY_MEASURE_WITH_UNIT (LENGTH_MEASURE( 1.000000000000000100E-005 ), #150, 'distance_accuracy_value', 'NONE');
#184 = LENGTH_MEASURE_WITH_UNIT ( LENGTH_MEASURE( 0.02539999999999999900 ), #89 );
ENDSEC;
END-ISO-10303-21;
