ISO-10303-21;
HEADER;
FILE_DESCRIPTION (( 'STEP AP203' ),
    '1' );
FILE_NAME ('300504.STEP',
    '2017-01-17T18:17:28',
    ( 'temp' ),
    ( '' ),
    'SwSTEP 2.0',
    'SolidWorks 2016',
    '' );
FILE_SCHEMA (( 'CONFIG_CONTROL_DESIGN' ));
ENDSEC;

DATA;
#1 = AXIS2_PLACEMENT_3D ( 'NONE', #8, #176, #62 ) ;
#2 = DESIGN_CONTEXT ( 'detailed design', #178, 'design' ) ;
#3 = PERSON_AND_ORGANIZATION ( #89, #123 ) ;
#4 = FACE_OUTER_BOUND ( 'NONE', #31, .T. ) ;
#5 = EDGE_CURVE ( 'NONE', #164, #206, #13, .T. ) ;
#6 = CARTESIAN_POINT ( 'NONE',  ( 0.0000000000000000000, -1.559999999999999800, 0.0000000000000000000 ) ) ;
#7 = CC_DESIGN_DATE_AND_TIME_ASSIGNMENT ( #175, #12, ( #70 ) ) ;
#8 = CARTESIAN_POINT ( 'NONE',  ( 9.552245033349354800E-017, -1.560000000000000100, 0.0000000000000000000 ) ) ;
#9 = LINE ( 'NONE', #46, #200 ) ;
#10 = ORIENTED_EDGE ( 'NONE', *, *, #171, .T. ) ;
#11 = DIRECTION ( 'NONE',  ( 0.0000000000000000000, 0.0000000000000000000, 1.000000000000000000 ) ) ;
#12 = DATE_TIME_ROLE ( 'classification_date' ) ;
#13 = CIRCLE ( 'NONE', #188, 1.560000000000000100 ) ;
#14 = DIRECTION ( 'NONE',  ( -1.000000000000000000, 0.0000000000000000000, 0.0000000000000000000 ) ) ;
#15 = LOCAL_TIME ( 10, 17, 28.00000000000000000, #109 ) ;
#16 = CARTESIAN_POINT ( 'NONE',  ( 0.0000000000000000000, 0.0000000000000000000, 0.0000000000000000000 ) ) ;
#17 = ORIENTED_EDGE ( 'NONE', *, *, #88, .F. ) ;
#18 = AXIS2_PLACEMENT_3D ( 'NONE', #211, #196, #68 ) ;
#19 = SPHERICAL_SURFACE ( 'NONE', #32, 1.560000000000000100 ) ;
#20 = ORIENTED_EDGE ( 'NONE', *, *, #171, .F. ) ;
#21 = EDGE_CURVE ( 'NONE', #99, #60, #52, .T. ) ;
#22 = FACE_OUTER_BOUND ( 'NONE', #112, .T. ) ;
#23 = SHAPE_DEFINITION_REPRESENTATION ( #121, #87 ) ;
#24 = CARTESIAN_POINT ( 'NONE',  ( 0.0000000000000000000, 0.0000000000000000000, 0.0000000000000000000 ) ) ;
#25 = CLOSED_SHELL ( 'NONE', ( #183, #40, #56, #117, #100 ) ) ;
#26 = AXIS2_PLACEMENT_3D ( 'NONE', #24, #193, #92 ) ;
#27 = ORIENTED_EDGE ( 'NONE', *, *, #124, .T. ) ;
#28 = PERSON_AND_ORGANIZATION ( #89, #123 ) ;
#29 = SECURITY_CLASSIFICATION_LEVEL ( 'unclassified' ) ;
#30 = FACE_OUTER_BOUND ( 'NONE', #73, .T. ) ;
#31 = EDGE_LOOP ( 'NONE', ( #167, #10, #102 ) ) ;
#32 = AXIS2_PLACEMENT_3D ( 'NONE', #197, #212, #53 ) ;
#33 = DIRECTION ( 'NONE',  ( 0.0000000000000000000, 0.0000000000000000000, 1.000000000000000000 ) ) ;
#34 = PERSON_AND_ORGANIZATION ( #89, #123 ) ;
#35 = DATE_TIME_ROLE ( 'creation_date' ) ;
#36 = LOCAL_TIME ( 10, 17, 28.00000000000000000, #172 ) ;
#37 = SPHERICAL_SURFACE ( 'NONE', #43, 1.500000000000000200 ) ;
#38 = PRODUCT_DEFINITION ( 'UNKNOWN', '', #173, #2 ) ;
#39 = DIRECTION ( 'NONE',  ( -0.0000000000000000000, 1.000000000000000000, -0.0000000000000000000 ) ) ;
#40 = ADVANCED_FACE ( 'NONE', ( #85 ), #127, .F. ) ;
#41 = CALENDAR_DATE ( 2017, 17, 1 ) ;
#42 = CIRCLE ( 'NONE', #150, 1.560000000000000100 ) ;
#43 = AXIS2_PLACEMENT_3D ( 'NONE', #94, #113, #80 ) ;
#44 = DIRECTION ( 'NONE',  ( -0.0000000000000000000, 1.000000000000000000, 0.0000000000000000000 ) ) ;
#45 = APPROVAL_ROLE ( '' ) ;
#46 = CARTESIAN_POINT ( 'NONE',  ( -5.237222008264700000E-015, -1.559999999999999800, 1.500000000000000200 ) ) ;
#47 = DIRECTION ( 'NONE',  ( 3.491481338843133000E-015, 0.0000000000000000000, -1.000000000000000000 ) ) ;
#48 = CC_DESIGN_PERSON_AND_ORGANIZATION_ASSIGNMENT ( #75, #77, ( #74 ) ) ;
#49 = CARTESIAN_POINT ( 'NONE',  ( 1.500000000000000200, -1.559999999999999800, 0.0000000000000000000 ) ) ;
#50 = DIRECTION ( 'NONE',  ( 3.491481338843133000E-015, 0.0000000000000000000, -1.000000000000000000 ) ) ;
#51 = APPROVAL_PERSON_ORGANIZATION ( #140, #181, #207 ) ;
#52 = CIRCLE ( 'NONE', #1, 1.500000000000000200 ) ;
#53 = DIRECTION ( 'NONE',  ( -3.491481338843133400E-015, 0.0000000000000000000, 1.000000000000000000 ) ) ;
#54 = CC_DESIGN_PERSON_AND_ORGANIZATION_ASSIGNMENT ( #133, #90, ( #173 ) ) ;
#55 = UNCERTAINTY_MEASURE_WITH_UNIT (LENGTH_MEASURE( 1.000000000000000100E-005 ), #71, 'distance_accuracy_value', 'NONE');
#56 = ADVANCED_FACE ( 'NONE', ( #122 ), #37, .F. ) ;
#57 = CALENDAR_DATE ( 2017, 17, 1 ) ;
#58 = PERSON_AND_ORGANIZATION_ROLE ( 'creator' ) ;
#59 = CC_DESIGN_DATE_AND_TIME_ASSIGNMENT ( #162, #35, ( #38 ) ) ;
#60 = VERTEX_POINT ( 'NONE', #49 ) ;
#61 = CC_DESIGN_SECURITY_CLASSIFICATION ( #70, ( #173 ) ) ;
#62 = DIRECTION ( 'NONE',  ( -1.000000000000000000, 0.0000000000000000000, 0.0000000000000000000 ) ) ;
#63 = LINE ( 'NONE', #111, #110 ) ;
#64 = APPLICATION_PROTOCOL_DEFINITION ( 'international standard', 'config_control_design', 1994, #178 ) ;
#65 =( NAMED_UNIT ( * ) PLANE_ANGLE_UNIT ( ) SI_UNIT ( $, .RADIAN. ) );
#66 = CARTESIAN_POINT ( 'NONE',  ( 9.552245033349354800E-017, -1.560000000000000100, 0.0000000000000000000 ) ) ;
#67 = DIRECTION ( 'NONE',  ( 1.000000000000000000, 0.0000000000000000000, 3.491481338843133400E-015 ) ) ;
#68 = DIRECTION ( 'NONE',  ( 3.491481338843133400E-015, 0.0000000000000000000, -1.000000000000000000 ) ) ;
#69 = ORIENTED_EDGE ( 'NONE', *, *, #21, .F. ) ;
#70 = SECURITY_CLASSIFICATION ( '', '', #29 ) ;
#71 =( CONVERSION_BASED_UNIT ( 'INCH', #134 ) LENGTH_UNIT ( ) NAMED_UNIT ( #153 ) );
#72 = ORIENTED_EDGE ( 'NONE', *, *, #147, .F. ) ;
#73 = EDGE_LOOP ( 'NONE', ( #27, #184, #152, #120 ) ) ;
#74 = PRODUCT ( '300504', '300504', '', ( #189 ) ) ;
#75 = PERSON_AND_ORGANIZATION ( #89, #123 ) ;
#76 = ORIENTED_EDGE ( 'NONE', *, *, #105, .F. ) ;
#77 = PERSON_AND_ORGANIZATION_ROLE ( 'design_owner' ) ;
#78 = DIRECTION ( 'NONE',  ( 8.478244675126344800E-030, -1.000000000000000000, -2.428265785300036800E-015 ) ) ;
#79 = CC_DESIGN_PERSON_AND_ORGANIZATION_ASSIGNMENT ( #180, #143, ( #38 ) ) ;
#80 = DIRECTION ( 'NONE',  ( 3.491481338843133000E-015, 0.0000000000000000000, -1.000000000000000000 ) ) ;
#81 = DATE_AND_TIME ( #41, #205 ) ;
#82 = CARTESIAN_POINT ( 'NONE',  ( 1.560000000000000100, -1.559999999999999800, 0.0000000000000000000 ) ) ;
#83 = APPROVAL ( #168, 'UNSPECIFIED' ) ;
#84 = AXIS2_PLACEMENT_3D ( 'NONE', #66, #108, #14 ) ;
#85 = FACE_OUTER_BOUND ( 'NONE', #128, .T. ) ;
#86 = LINE ( 'NONE', #95, #187 ) ;
#87 = ADVANCED_BREP_SHAPE_REPRESENTATION ( '300504', ( #129, #26 ), #139 ) ;
#88 = EDGE_CURVE ( 'NONE', #148, #164, #9, .T. ) ;
#89 = PERSON ( 'UNSPECIFIED', 'UNSPECIFIED', 'UNSPECIFIED', ('UNSPECIFIED'), ('UNSPECIFIED'), ('UNSPECIFIED') ) ;
#90 = PERSON_AND_ORGANIZATION_ROLE ( 'design_supplier' ) ;
#91 = CC_DESIGN_APPROVAL ( #181, ( #70 ) ) ;
#92 = DIRECTION ( 'NONE',  ( 1.000000000000000000, 0.0000000000000000000, 0.0000000000000000000 ) ) ;
#93 = CARTESIAN_POINT ( 'NONE',  ( 5.086946805075798400E-031, -0.05999999999999990800, -1.456959471180019700E-016 ) ) ;
#94 = CARTESIAN_POINT ( 'NONE',  ( -3.335148527799627700E-031, -1.560000000000000100, 9.552245033349354800E-017 ) ) ;
#95 = CARTESIAN_POINT ( 'NONE',  ( 0.0000000000000000000, 0.0000000000000000000, 0.0000000000000000000 ) ) ;
#96 = ORIENTED_EDGE ( 'NONE', *, *, #155, .F. ) ;
#97 = AXIS2_PLACEMENT_3D ( 'NONE', #202, #67, #47 ) ;
#98 = COORDINATED_UNIVERSAL_TIME_OFFSET ( 8, 0, .BEHIND. ) ;
#99 = VERTEX_POINT ( 'NONE', #93 ) ;
#100 = ADVANCED_FACE ( 'NONE', ( #22 ), #209, .T. ) ;
#101 = CC_DESIGN_APPROVAL ( #83, ( #173 ) ) ;
#102 = ORIENTED_EDGE ( 'NONE', *, *, #124, .F. ) ;
#103 = LOCAL_TIME ( 10, 17, 28.00000000000000000, #157 ) ;
#104 = ORIENTED_EDGE ( 'NONE', *, *, #137, .F. ) ;
#105 = EDGE_CURVE ( 'NONE', #99, #148, #213, .T. ) ;
#106 = APPROVAL_STATUS ( 'not_yet_approved' ) ;
#107 = APPLICATION_CONTEXT ( 'configuration controlled 3d designs of mechanical parts and assemblies' ) ;
#108 = DIRECTION ( 'NONE',  ( -0.0000000000000000000, 0.0000000000000000000, -1.000000000000000000 ) ) ;
#109 = COORDINATED_UNIVERSAL_TIME_OFFSET ( 8, 0, .BEHIND. ) ;
#110 = VECTOR ( 'NONE', #132, 39.37007874015748100 ) ;
#111 = CARTESIAN_POINT ( 'NONE',  ( 1.500000000000000200, -1.559999999999999800, 0.0000000000000000000 ) ) ;
#112 = EDGE_LOOP ( 'NONE', ( #20, #96, #69, #104 ) ) ;
#113 = DIRECTION ( 'NONE',  ( -1.000000000000000000, 0.0000000000000000000, -3.491481338843133000E-015 ) ) ;
#114 = APPROVAL_ROLE ( '' ) ;
#115 = CC_DESIGN_PERSON_AND_ORGANIZATION_ASSIGNMENT ( #3, #126, ( #70 ) ) ;
#116 = ORIENTED_EDGE ( 'NONE', *, *, #147, .T. ) ;
#117 = ADVANCED_FACE ( 'NONE', ( #30 ), #130, .F. ) ;
#118 = AXIS2_PLACEMENT_3D ( 'NONE', #191, #44, #11 ) ;
#119 = APPROVAL_PERSON_ORGANIZATION ( #166, #83, #114 ) ;
#120 = ORIENTED_EDGE ( 'NONE', *, *, #88, .T. ) ;
#121 = PRODUCT_DEFINITION_SHAPE ( 'NONE', 'NONE',  #38 ) ;
#122 = FACE_OUTER_BOUND ( 'NONE', #195, .T. ) ;
#123 = ORGANIZATION ( 'UNSPECIFIED', 'UNSPECIFIED', '' ) ;
#124 = EDGE_CURVE ( 'NONE', #164, #201, #177, .T. ) ;
#125 = PRODUCT_RELATED_PRODUCT_CATEGORY ( 'detail', '', ( #74 ) ) ;
#126 = PERSON_AND_ORGANIZATION_ROLE ( 'classification_officer' ) ;
#127 = PLANE ( 'NONE',  #118 ) ;
#128 = EDGE_LOOP ( 'NONE', ( #116, #154, #185, #17 ) ) ;
#129 = MANIFOLD_SOLID_BREP ( 'Revolve1', #25 ) ;
#130 = PLANE ( 'NONE',  #158 ) ;
#131 = CARTESIAN_POINT ( 'NONE',  ( 0.0000000000000000000, -1.559999999999999800, 0.0000000000000000000 ) ) ;
#132 = DIRECTION ( 'NONE',  ( 1.000000000000000000, 0.0000000000000000000, 0.0000000000000000000 ) ) ;
#133 = PERSON_AND_ORGANIZATION ( #89, #123 ) ;
#134 = LENGTH_MEASURE_WITH_UNIT ( LENGTH_MEASURE( 0.02539999999999999900 ), #169 );
#135 = CARTESIAN_POINT ( 'NONE',  ( 9.552245033349354800E-017, -1.560000000000000100, 0.0000000000000000000 ) ) ;
#136 = APPROVAL_DATE_TIME ( #142, #181 ) ;
#137 = EDGE_CURVE ( 'NONE', #201, #99, #86, .T. ) ;
#138 = CALENDAR_DATE ( 2017, 17, 1 ) ;
#139 =( GEOMETRIC_REPRESENTATION_CONTEXT ( 3 ) GLOBAL_UNCERTAINTY_ASSIGNED_CONTEXT ( ( #55 ) ) GLOBAL_UNIT_ASSIGNED_CONTEXT ( ( #71, #65, #190 ) ) REPRESENTATION_CONTEXT ( 'NONE', 'WORKASPACE' ) );
#140 = PERSON_AND_ORGANIZATION ( #89, #123 ) ;
#141 = AXIS2_PLACEMENT_3D ( 'NONE', #131, #194, #210 ) ;
#142 = DATE_AND_TIME ( #170, #156 ) ;
#143 = PERSON_AND_ORGANIZATION_ROLE ( 'creator' ) ;
#144 = DIRECTION ( 'NONE',  ( 0.0000000000000000000, 0.0000000000000000000, 1.000000000000000000 ) ) ;
#145 = CARTESIAN_POINT ( 'NONE',  ( -3.335148527799627700E-031, -1.560000000000000100, 9.552245033349354800E-017 ) ) ;
#146 = CARTESIAN_POINT ( 'NONE',  ( -5.237222008264700000E-015, -1.559999999999999800, 1.500000000000000200 ) ) ;
#147 = EDGE_CURVE ( 'NONE', #148, #60, #198, .T. ) ;
#148 = VERTEX_POINT ( 'NONE', #146 ) ;
#149 = DIRECTION ( 'NONE',  ( -1.000000000000000000, 0.0000000000000000000, 0.0000000000000000000 ) ) ;
#150 = AXIS2_PLACEMENT_3D ( 'NONE', #135, #33, #149 ) ;
#151 = CALENDAR_DATE ( 2017, 17, 1 ) ;
#152 = ORIENTED_EDGE ( 'NONE', *, *, #105, .T. ) ;
#153 = DIMENSIONAL_EXPONENTS ( 1.000000000000000000, 0.0000000000000000000, 0.0000000000000000000, 0.0000000000000000000, 0.0000000000000000000, 0.0000000000000000000, 0.0000000000000000000 ) ;
#154 = ORIENTED_EDGE ( 'NONE', *, *, #155, .T. ) ;
#155 = EDGE_CURVE ( 'NONE', #60, #206, #63, .T. ) ;
#156 = LOCAL_TIME ( 10, 17, 28.00000000000000000, #208 ) ;
#157 = COORDINATED_UNIVERSAL_TIME_OFFSET ( 8, 0, .BEHIND. ) ;
#158 = AXIS2_PLACEMENT_3D ( 'NONE', #145, #163, #50 ) ;
#159 = APPROVAL_STATUS ( 'not_yet_approved' ) ;
#160 = CARTESIAN_POINT ( 'NONE',  ( -5.446710888595288300E-015, -1.559999999999999800, 1.560000000000000100 ) ) ;
#161 = APPROVAL_DATE_TIME ( #179, #204 ) ;
#162 = DATE_AND_TIME ( #151, #15 ) ;
#163 = DIRECTION ( 'NONE',  ( 1.000000000000000000, 0.0000000000000000000, 3.491481338843133000E-015 ) ) ;
#164 = VERTEX_POINT ( 'NONE', #160 ) ;
#165 = DIRECTION ( 'NONE',  ( -3.491481338843133000E-015, 0.0000000000000000000, 1.000000000000000000 ) ) ;
#166 = PERSON_AND_ORGANIZATION ( #89, #123 ) ;
#167 = ORIENTED_EDGE ( 'NONE', *, *, #5, .T. ) ;
#168 = APPROVAL_STATUS ( 'not_yet_approved' ) ;
#169 =( LENGTH_UNIT ( ) NAMED_UNIT ( * ) SI_UNIT ( $, .METRE. ) );
#170 = CALENDAR_DATE ( 2017, 17, 1 ) ;
#171 = EDGE_CURVE ( 'NONE', #206, #201, #42, .T. ) ;
#172 = COORDINATED_UNIVERSAL_TIME_OFFSET ( 8, 0, .BEHIND. ) ;
#173 = PRODUCT_DEFINITION_FORMATION_WITH_SPECIFIED_SOURCE ( 'ANY', '', #74, .NOT_KNOWN. ) ;
#174 = APPLICATION_PROTOCOL_DEFINITION ( 'international standard', 'config_control_design', 1994, #107 ) ;
#175 = DATE_AND_TIME ( #138, #36 ) ;
#176 = DIRECTION ( 'NONE',  ( -0.0000000000000000000, -0.0000000000000000000, -1.000000000000000000 ) ) ;
#177 = CIRCLE ( 'NONE', #18, 1.560000000000000100 ) ;
#178 = APPLICATION_CONTEXT ( 'configuration controlled 3d designs of mechanical parts and assemblies' ) ;
#179 = DATE_AND_TIME ( #57, #103 ) ;
#180 = PERSON_AND_ORGANIZATION ( #89, #123 ) ;
#181 = APPROVAL ( #106, 'UNSPECIFIED' ) ;
#182 = APPROVAL_DATE_TIME ( #81, #83 ) ;
#183 = ADVANCED_FACE ( 'NONE', ( #4 ), #19, .T. ) ;
#184 = ORIENTED_EDGE ( 'NONE', *, *, #137, .T. ) ;
#185 = ORIENTED_EDGE ( 'NONE', *, *, #5, .F. ) ;
#186 = ORIENTED_EDGE ( 'NONE', *, *, #21, .T. ) ;
#187 = VECTOR ( 'NONE', #78, 39.37007874015748100 ) ;
#188 = AXIS2_PLACEMENT_3D ( 'NONE', #6, #39, #144 ) ;
#189 = MECHANICAL_CONTEXT ( 'NONE', #107, 'mechanical' ) ;
#190 =( NAMED_UNIT ( * ) SI_UNIT ( $, .STERADIAN. ) SOLID_ANGLE_UNIT ( ) );
#191 = CARTESIAN_POINT ( 'NONE',  ( -5.237222008264700000E-015, -1.559999999999999800, 1.500000000000000200 ) ) ;
#192 = CC_DESIGN_APPROVAL ( #204, ( #38 ) ) ;
#193 = DIRECTION ( 'NONE',  ( 0.0000000000000000000, 0.0000000000000000000, 1.000000000000000000 ) ) ;
#194 = DIRECTION ( 'NONE',  ( -0.0000000000000000000, 1.000000000000000000, -0.0000000000000000000 ) ) ;
#195 = EDGE_LOOP ( 'NONE', ( #186, #72, #76 ) ) ;
#196 = DIRECTION ( 'NONE',  ( -1.000000000000000000, 0.0000000000000000000, -3.491481338843133400E-015 ) ) ;
#197 = CARTESIAN_POINT ( 'NONE',  ( -3.335148527799627700E-031, -1.560000000000000100, 9.552245033349354800E-017 ) ) ;
#198 = CIRCLE ( 'NONE', #141, 1.500000000000000200 ) ;
#199 = APPROVAL_PERSON_ORGANIZATION ( #34, #204, #45 ) ;
#200 = VECTOR ( 'NONE', #165, 39.37007874015748100 ) ;
#201 = VERTEX_POINT ( 'NONE', #16 ) ;
#202 = CARTESIAN_POINT ( 'NONE',  ( -3.335148527799627700E-031, -1.560000000000000100, 9.552245033349354800E-017 ) ) ;
#203 = CC_DESIGN_PERSON_AND_ORGANIZATION_ASSIGNMENT ( #28, #58, ( #173 ) ) ;
#204 = APPROVAL ( #159, 'UNSPECIFIED' ) ;
#205 = LOCAL_TIME ( 10, 17, 28.00000000000000000, #98 ) ;
#206 = VERTEX_POINT ( 'NONE', #82 ) ;
#207 = APPROVAL_ROLE ( '' ) ;
#208 = COORDINATED_UNIVERSAL_TIME_OFFSET ( 8, 0, .BEHIND. ) ;
#209 = PLANE ( 'NONE',  #84 ) ;
#210 = DIRECTION ( 'NONE',  ( 0.0000000000000000000, 0.0000000000000000000, 1.000000000000000000 ) ) ;
#211 = CARTESIAN_POINT ( 'NONE',  ( -3.335148527799627700E-031, -1.560000000000000100, 9.552245033349354800E-017 ) ) ;
#212 = DIRECTION ( 'NONE',  ( 1.000000000000000000, 0.0000000000000000000, 3.491481338843133400E-015 ) ) ;
#213 = CIRCLE ( 'NONE', #97, 1.500000000000000200 ) ;
ENDSEC;
END-ISO-10303-21;
