ISO-10303-21;
HEADER;
FILE_DESCRIPTION (( 'STEP AP203' ),
    '1' );
FILE_NAME ('300304.STEP',
    '2017-01-13T00:43:48',
    ( 'temp' ),
    ( '' ),
    'SwSTEP 2.0',
    'SolidWorks 2016',
    '' );
FILE_SCHEMA (( 'CONFIG_CONTROL_DESIGN' ));
ENDSEC;

DATA;
#1 = EDGE_LOOP ( 'NONE', ( #100, #205, #99 ) ) ;
#2 = DIRECTION ( 'NONE',  ( 3.491481338843133400E-015, 0.0000000000000000000, -1.000000000000000000 ) ) ;
#3 = FACE_OUTER_BOUND ( 'NONE', #40, .T. ) ;
#4 = CC_DESIGN_PERSON_AND_ORGANIZATION_ASSIGNMENT ( #197, #211, ( #157 ) ) ;
#5 = DIRECTION ( 'NONE',  ( 3.491481338843133000E-015, 0.0000000000000000000, -1.000000000000000000 ) ) ;
#6 = PERSON_AND_ORGANIZATION_ROLE ( 'classification_officer' ) ;
#7 = DIRECTION ( 'NONE',  ( 1.000000000000000000, 0.0000000000000000000, 3.491481338843133400E-015 ) ) ;
#8 = COORDINATED_UNIVERSAL_TIME_OFFSET ( 8, 0, .BEHIND. ) ;
#9 = PRODUCT_DEFINITION ( 'UNKNOWN', '', #157, #140 ) ;
#10 = ORIENTED_EDGE ( 'NONE', *, *, #164, .F. ) ;
#11 = AXIS2_PLACEMENT_3D ( 'NONE', #39, #201, #125 ) ;
#12 = CIRCLE ( 'NONE', #88, 1.560000000000000100 ) ;
#13 = VERTEX_POINT ( 'NONE', #22 ) ;
#14 = DIRECTION ( 'NONE',  ( 1.000000000000000000, 0.0000000000000000000, 3.491481338843133400E-015 ) ) ;
#15 = CC_DESIGN_PERSON_AND_ORGANIZATION_ASSIGNMENT ( #49, #152, ( #9 ) ) ;
#16 = APPROVAL_STATUS ( 'not_yet_approved' ) ;
#17 = ORIENTED_EDGE ( 'NONE', *, *, #151, .F. ) ;
#18 = AXIS2_PLACEMENT_3D ( 'NONE', #188, #66, #153 ) ;
#19 = COORDINATED_UNIVERSAL_TIME_OFFSET ( 8, 0, .BEHIND. ) ;
#20 = CARTESIAN_POINT ( 'NONE',  ( 1.500000000000000200, -1.559999999999999800, 0.0000000000000000000 ) ) ;
#21 = ORIENTED_EDGE ( 'NONE', *, *, #74, .F. ) ;
#22 = CARTESIAN_POINT ( 'NONE',  ( 1.560000000000000100, -1.559999999999999800, 0.0000000000000000000 ) ) ;
#23 = AXIS2_PLACEMENT_3D ( 'NONE', #192, #145, #64 ) ;
#24 = DIRECTION ( 'NONE',  ( -1.000000000000000000, 0.0000000000000000000, -3.491481338843133400E-015 ) ) ;
#25 = MANIFOLD_SOLID_BREP ( 'Revolve1', #167 ) ;
#26 = CIRCLE ( 'NONE', #23, 1.560000000000000100 ) ;
#27 = PERSON_AND_ORGANIZATION ( #169, #174 ) ;
#28 = CC_DESIGN_PERSON_AND_ORGANIZATION_ASSIGNMENT ( #76, #33, ( #157 ) ) ;
#29 = LENGTH_MEASURE_WITH_UNIT ( LENGTH_MEASURE( 0.02539999999999999900 ), #106 );
#30 = DATE_AND_TIME ( #53, #171 ) ;
#31 = PERSON_AND_ORGANIZATION ( #169, #174 ) ;
#32 = APPLICATION_PROTOCOL_DEFINITION ( 'international standard', 'config_control_design', 1994, #150 ) ;
#33 = PERSON_AND_ORGANIZATION_ROLE ( 'creator' ) ;
#34 = COORDINATED_UNIVERSAL_TIME_OFFSET ( 8, 0, .BEHIND. ) ;
#35 = VERTEX_POINT ( 'NONE', #193 ) ;
#36 = EDGE_CURVE ( 'NONE', #199, #118, #12, .T. ) ;
#37 = CC_DESIGN_SECURITY_CLASSIFICATION ( #103, ( #157 ) ) ;
#38 = AXIS2_PLACEMENT_3D ( 'NONE', #190, #7, #158 ) ;
#39 = CARTESIAN_POINT ( 'NONE',  ( 9.552245033349354800E-017, -1.560000000000000100, 0.0000000000000000000 ) ) ;
#40 = EDGE_LOOP ( 'NONE', ( #102, #206, #42, #163 ) ) ;
#41 = CARTESIAN_POINT ( 'NONE',  ( -3.335148527799627700E-031, -1.560000000000000100, 9.552245033349354800E-017 ) ) ;
#42 = ORIENTED_EDGE ( 'NONE', *, *, #184, .T. ) ;
#43 = EDGE_LOOP ( 'NONE', ( #156, #17, #131 ) ) ;
#44 =( GEOMETRIC_REPRESENTATION_CONTEXT ( 3 ) GLOBAL_UNCERTAINTY_ASSIGNED_CONTEXT ( ( #177 ) ) GLOBAL_UNIT_ASSIGNED_CONTEXT ( ( #180, #71, #148 ) ) REPRESENTATION_CONTEXT ( 'NONE', 'WORKASPACE' ) );
#45 = CARTESIAN_POINT ( 'NONE',  ( -5.237222008264700000E-015, -1.559999999999999800, 1.500000000000000200 ) ) ;
#46 = DIRECTION ( 'NONE',  ( 3.491481338843133000E-015, 0.0000000000000000000, -1.000000000000000000 ) ) ;
#47 = CARTESIAN_POINT ( 'NONE',  ( 9.552245033349354800E-017, -1.560000000000000100, 0.0000000000000000000 ) ) ;
#48 = AXIS2_PLACEMENT_3D ( 'NONE', #47, #67, #166 ) ;
#49 = PERSON_AND_ORGANIZATION ( #169, #174 ) ;
#50 = DIRECTION ( 'NONE',  ( 1.000000000000000000, 0.0000000000000000000, 0.0000000000000000000 ) ) ;
#51 = DATE_AND_TIME ( #123, #154 ) ;
#52 = DATE_TIME_ROLE ( 'creation_date' ) ;
#53 = CALENDAR_DATE ( 2017, 12, 1 ) ;
#54 = CC_DESIGN_PERSON_AND_ORGANIZATION_ASSIGNMENT ( #27, #210, ( #114 ) ) ;
#55 = DIRECTION ( 'NONE',  ( 1.000000000000000000, 0.0000000000000000000, 0.0000000000000000000 ) ) ;
#56 = FACE_OUTER_BOUND ( 'NONE', #43, .T. ) ;
#57 = DATE_AND_TIME ( #170, #149 ) ;
#58 = DIRECTION ( 'NONE',  ( 8.478244675126344800E-030, -1.000000000000000000, -2.428265785300036800E-015 ) ) ;
#59 = PRODUCT_RELATED_PRODUCT_CATEGORY ( 'detail', '', ( #114 ) ) ;
#60 = ADVANCED_FACE ( 'NONE', ( #196 ), #93, .T. ) ;
#61 = CARTESIAN_POINT ( 'NONE',  ( 0.0000000000000000000, 0.0000000000000000000, 0.0000000000000000000 ) ) ;
#62 = AXIS2_PLACEMENT_3D ( 'NONE', #141, #126, #5 ) ;
#63 = APPROVAL_PERSON_ORGANIZATION ( #159, #90, #73 ) ;
#64 = DIRECTION ( 'NONE',  ( -1.000000000000000000, 0.0000000000000000000, 0.0000000000000000000 ) ) ;
#65 = APPROVAL ( #16, 'UNSPECIFIED' ) ;
#66 = DIRECTION ( 'NONE',  ( 1.000000000000000000, 0.0000000000000000000, 3.491481338843133000E-015 ) ) ;
#67 = DIRECTION ( 'NONE',  ( -0.0000000000000000000, -0.0000000000000000000, -1.000000000000000000 ) ) ;
#68 = EDGE_LOOP ( 'NONE', ( #186, #10, #162, #21 ) ) ;
#69 = DATE_AND_TIME ( #72, #70 ) ;
#70 = LOCAL_TIME ( 16, 43, 48.00000000000000000, #34 ) ;
#71 =( NAMED_UNIT ( * ) PLANE_ANGLE_UNIT ( ) SI_UNIT ( $, .RADIAN. ) );
#72 = CALENDAR_DATE ( 2017, 12, 1 ) ;
#73 = APPROVAL_ROLE ( '' ) ;
#74 = EDGE_CURVE ( 'NONE', #118, #160, #165, .T. ) ;
#75 = CC_DESIGN_APPROVAL ( #161, ( #103 ) ) ;
#76 = PERSON_AND_ORGANIZATION ( #169, #174 ) ;
#77 = AXIS2_PLACEMENT_3D ( 'NONE', #146, #14, #46 ) ;
#78 = ORIENTED_EDGE ( 'NONE', *, *, #213, .F. ) ;
#79 = CC_DESIGN_APPROVAL ( #65, ( #157 ) ) ;
#80 = CARTESIAN_POINT ( 'NONE',  ( 0.0000000000000000000, 0.0000000000000000000, 0.0000000000000000000 ) ) ;
#81 = CIRCLE ( 'NONE', #77, 1.500000000000000200 ) ;
#82 = DATE_TIME_ROLE ( 'classification_date' ) ;
#83 = VECTOR ( 'NONE', #55, 39.37007874015748100 ) ;
#84 = DATE_AND_TIME ( #187, #144 ) ;
#85 = AXIS2_PLACEMENT_3D ( 'NONE', #61, #132, #50 ) ;
#86 = PERSON_AND_ORGANIZATION ( #169, #174 ) ;
#87 = ADVANCED_FACE ( 'NONE', ( #91 ), #155, .T. ) ;
#88 = AXIS2_PLACEMENT_3D ( 'NONE', #41, #24, #2 ) ;
#89 = CARTESIAN_POINT ( 'NONE',  ( -5.446710888595288300E-015, -1.559999999999999800, 1.560000000000000100 ) ) ;
#90 = APPROVAL ( #92, 'UNSPECIFIED' ) ;
#91 = FACE_OUTER_BOUND ( 'NONE', #1, .T. ) ;
#92 = APPROVAL_STATUS ( 'not_yet_approved' ) ;
#93 = PLANE ( 'NONE',  #11 ) ;
#94 = COORDINATED_UNIVERSAL_TIME_OFFSET ( 8, 0, .BEHIND. ) ;
#95 = AXIS2_PLACEMENT_3D ( 'NONE', #113, #147, #127 ) ;
#96 = CARTESIAN_POINT ( 'NONE',  ( 5.086946805075798400E-031, -0.05999999999999990800, -1.456959471180019700E-016 ) ) ;
#97 = CC_DESIGN_DATE_AND_TIME_ASSIGNMENT ( #30, #82, ( #103 ) ) ;
#98 = VECTOR ( 'NONE', #185, 39.37007874015748100 ) ;
#99 = ORIENTED_EDGE ( 'NONE', *, *, #36, .F. ) ;
#100 = ORIENTED_EDGE ( 'NONE', *, *, #213, .T. ) ;
#101 = CC_DESIGN_DATE_AND_TIME_ASSIGNMENT ( #51, #52, ( #9 ) ) ;
#102 = ORIENTED_EDGE ( 'NONE', *, *, #36, .T. ) ;
#103 = SECURITY_CLASSIFICATION ( '', '', #143 ) ;
#104 = MECHANICAL_CONTEXT ( 'NONE', #150, 'mechanical' ) ;
#105 = APPROVAL_PERSON_ORGANIZATION ( #86, #65, #138 ) ;
#106 =( LENGTH_UNIT ( ) NAMED_UNIT ( * ) SI_UNIT ( $, .METRE. ) );
#107 = LINE ( 'NONE', #20, #83 ) ;
#108 = APPROVAL_STATUS ( 'not_yet_approved' ) ;
#109 = SPHERICAL_SURFACE ( 'NONE', #62, 1.500000000000000200 ) ;
#110 = DIMENSIONAL_EXPONENTS ( 1.000000000000000000, 0.0000000000000000000, 0.0000000000000000000, 0.0000000000000000000, 0.0000000000000000000, 0.0000000000000000000, 0.0000000000000000000 ) ;
#111 = CARTESIAN_POINT ( 'NONE',  ( 0.0000000000000000000, -1.559999999999999800, 0.0000000000000000000 ) ) ;
#112 = PLANE ( 'NONE',  #18 ) ;
#113 = CARTESIAN_POINT ( 'NONE',  ( 0.0000000000000000000, -1.559999999999999800, 0.0000000000000000000 ) ) ;
#114 = PRODUCT ( '300304', '300304', '', ( #104 ) ) ;
#115 = APPROVAL_DATE_TIME ( #57, #90 ) ;
#116 = DIRECTION ( 'NONE',  ( -0.0000000000000000000, 1.000000000000000000, 0.0000000000000000000 ) ) ;
#117 = CIRCLE ( 'NONE', #48, 1.500000000000000200 ) ;
#118 = VERTEX_POINT ( 'NONE', #173 ) ;
#119 = CC_DESIGN_APPROVAL ( #90, ( #9 ) ) ;
#120 = ORIENTED_EDGE ( 'NONE', *, *, #164, .T. ) ;
#121 = ADVANCED_BREP_SHAPE_REPRESENTATION ( '300304', ( #25, #85 ), #44 ) ;
#122 = DIRECTION ( 'NONE',  ( 0.0000000000000000000, 0.0000000000000000000, 1.000000000000000000 ) ) ;
#123 = CALENDAR_DATE ( 2017, 12, 1 ) ;
#124 = SHAPE_DEFINITION_REPRESENTATION ( #136, #121 ) ;
#125 = DIRECTION ( 'NONE',  ( -1.000000000000000000, 0.0000000000000000000, 0.0000000000000000000 ) ) ;
#126 = DIRECTION ( 'NONE',  ( -1.000000000000000000, 0.0000000000000000000, -3.491481338843133000E-015 ) ) ;
#127 = DIRECTION ( 'NONE',  ( 0.0000000000000000000, 0.0000000000000000000, 1.000000000000000000 ) ) ;
#128 = PERSON_AND_ORGANIZATION ( #169, #174 ) ;
#129 = ORIENTED_EDGE ( 'NONE', *, *, #151, .T. ) ;
#130 = CC_DESIGN_PERSON_AND_ORGANIZATION_ASSIGNMENT ( #31, #6, ( #103 ) ) ;
#131 = ORIENTED_EDGE ( 'NONE', *, *, #184, .F. ) ;
#132 = DIRECTION ( 'NONE',  ( 0.0000000000000000000, 0.0000000000000000000, 1.000000000000000000 ) ) ;
#133 = APPROVAL_DATE_TIME ( #84, #65 ) ;
#134 = CIRCLE ( 'NONE', #95, 1.560000000000000100 ) ;
#135 = PLANE ( 'NONE',  #172 ) ;
#136 = PRODUCT_DEFINITION_SHAPE ( 'NONE', 'NONE',  #9 ) ;
#137 = LINE ( 'NONE', #139, #98 ) ;
#138 = APPROVAL_ROLE ( '' ) ;
#139 = CARTESIAN_POINT ( 'NONE',  ( -5.237222008264700000E-015, -1.559999999999999800, 1.500000000000000200 ) ) ;
#140 = DESIGN_CONTEXT ( 'detailed design', #181, 'design' ) ;
#141 = CARTESIAN_POINT ( 'NONE',  ( -3.335148527799627700E-031, -1.560000000000000100, 9.552245033349354800E-017 ) ) ;
#142 = ADVANCED_FACE ( 'NONE', ( #56 ), #109, .F. ) ;
#143 = SECURITY_CLASSIFICATION_LEVEL ( 'unclassified' ) ;
#144 = LOCAL_TIME ( 16, 43, 48.00000000000000000, #19 ) ;
#145 = DIRECTION ( 'NONE',  ( 0.0000000000000000000, 0.0000000000000000000, 1.000000000000000000 ) ) ;
#146 = CARTESIAN_POINT ( 'NONE',  ( -3.335148527799627700E-031, -1.560000000000000100, 9.552245033349354800E-017 ) ) ;
#147 = DIRECTION ( 'NONE',  ( -0.0000000000000000000, 1.000000000000000000, -0.0000000000000000000 ) ) ;
#148 =( NAMED_UNIT ( * ) SI_UNIT ( $, .STERADIAN. ) SOLID_ANGLE_UNIT ( ) );
#149 = LOCAL_TIME ( 16, 43, 48.00000000000000000, #8 ) ;
#150 = APPLICATION_CONTEXT ( 'configuration controlled 3d designs of mechanical parts and assemblies' ) ;
#151 = EDGE_CURVE ( 'NONE', #194, #35, #212, .T. ) ;
#152 = PERSON_AND_ORGANIZATION_ROLE ( 'creator' ) ;
#153 = DIRECTION ( 'NONE',  ( 3.491481338843133000E-015, 0.0000000000000000000, -1.000000000000000000 ) ) ;
#154 = LOCAL_TIME ( 16, 43, 48.00000000000000000, #94 ) ;
#155 = SPHERICAL_SURFACE ( 'NONE', #38, 1.560000000000000100 ) ;
#156 = ORIENTED_EDGE ( 'NONE', *, *, #175, .T. ) ;
#157 = PRODUCT_DEFINITION_FORMATION_WITH_SPECIFIED_SOURCE ( 'ANY', '', #114, .NOT_KNOWN. ) ;
#158 = DIRECTION ( 'NONE',  ( -3.491481338843133400E-015, 0.0000000000000000000, 1.000000000000000000 ) ) ;
#159 = PERSON_AND_ORGANIZATION ( #169, #174 ) ;
#160 = VERTEX_POINT ( 'NONE', #96 ) ;
#161 = APPROVAL ( #108, 'UNSPECIFIED' ) ;
#162 = ORIENTED_EDGE ( 'NONE', *, *, #175, .F. ) ;
#163 = ORIENTED_EDGE ( 'NONE', *, *, #203, .T. ) ;
#164 = EDGE_CURVE ( 'NONE', #35, #13, #107, .T. ) ;
#165 = LINE ( 'NONE', #80, #178 ) ;
#166 = DIRECTION ( 'NONE',  ( -1.000000000000000000, 0.0000000000000000000, 0.0000000000000000000 ) ) ;
#167 = CLOSED_SHELL ( 'NONE', ( #87, #208, #142, #191, #60 ) ) ;
#168 = CARTESIAN_POINT ( 'NONE',  ( -5.237222008264700000E-015, -1.559999999999999800, 1.500000000000000200 ) ) ;
#169 = PERSON ( 'UNSPECIFIED', 'UNSPECIFIED', 'UNSPECIFIED', ('UNSPECIFIED'), ('UNSPECIFIED'), ('UNSPECIFIED') ) ;
#170 = CALENDAR_DATE ( 2017, 12, 1 ) ;
#171 = LOCAL_TIME ( 16, 43, 48.00000000000000000, #209 ) ;
#172 = AXIS2_PLACEMENT_3D ( 'NONE', #168, #116, #179 ) ;
#173 = CARTESIAN_POINT ( 'NONE',  ( 0.0000000000000000000, 0.0000000000000000000, 0.0000000000000000000 ) ) ;
#174 = ORGANIZATION ( 'UNSPECIFIED', 'UNSPECIFIED', '' ) ;
#175 = EDGE_CURVE ( 'NONE', #160, #35, #117, .T. ) ;
#176 = EDGE_CURVE ( 'NONE', #13, #118, #26, .T. ) ;
#177 = UNCERTAINTY_MEASURE_WITH_UNIT (LENGTH_MEASURE( 1.000000000000000100E-005 ), #180, 'distance_accuracy_value', 'NONE');
#178 = VECTOR ( 'NONE', #58, 39.37007874015748100 ) ;
#179 = DIRECTION ( 'NONE',  ( 0.0000000000000000000, 0.0000000000000000000, 1.000000000000000000 ) ) ;
#180 =( CONVERSION_BASED_UNIT ( 'INCH', #29 ) LENGTH_UNIT ( ) NAMED_UNIT ( #110 ) );
#181 = APPLICATION_CONTEXT ( 'configuration controlled 3d designs of mechanical parts and assemblies' ) ;
#182 = FACE_OUTER_BOUND ( 'NONE', #189, .T. ) ;
#183 = APPROVAL_DATE_TIME ( #69, #161 ) ;
#184 = EDGE_CURVE ( 'NONE', #160, #194, #81, .T. ) ;
#185 = DIRECTION ( 'NONE',  ( -3.491481338843133000E-015, 0.0000000000000000000, 1.000000000000000000 ) ) ;
#186 = ORIENTED_EDGE ( 'NONE', *, *, #176, .F. ) ;
#187 = CALENDAR_DATE ( 2017, 12, 1 ) ;
#188 = CARTESIAN_POINT ( 'NONE',  ( -3.335148527799627700E-031, -1.560000000000000100, 9.552245033349354800E-017 ) ) ;
#189 = EDGE_LOOP ( 'NONE', ( #129, #120, #78, #195 ) ) ;
#190 = CARTESIAN_POINT ( 'NONE',  ( -3.335148527799627700E-031, -1.560000000000000100, 9.552245033349354800E-017 ) ) ;
#191 = ADVANCED_FACE ( 'NONE', ( #3 ), #112, .F. ) ;
#192 = CARTESIAN_POINT ( 'NONE',  ( 9.552245033349354800E-017, -1.560000000000000100, 0.0000000000000000000 ) ) ;
#193 = CARTESIAN_POINT ( 'NONE',  ( 1.500000000000000200, -1.559999999999999800, 0.0000000000000000000 ) ) ;
#194 = VERTEX_POINT ( 'NONE', #45 ) ;
#195 = ORIENTED_EDGE ( 'NONE', *, *, #203, .F. ) ;
#196 = FACE_OUTER_BOUND ( 'NONE', #68, .T. ) ;
#197 = PERSON_AND_ORGANIZATION ( #169, #174 ) ;
#198 = APPLICATION_PROTOCOL_DEFINITION ( 'international standard', 'config_control_design', 1994, #181 ) ;
#199 = VERTEX_POINT ( 'NONE', #89 ) ;
#200 = APPROVAL_ROLE ( '' ) ;
#201 = DIRECTION ( 'NONE',  ( -0.0000000000000000000, 0.0000000000000000000, -1.000000000000000000 ) ) ;
#202 = DIRECTION ( 'NONE',  ( -0.0000000000000000000, 1.000000000000000000, -0.0000000000000000000 ) ) ;
#203 = EDGE_CURVE ( 'NONE', #194, #199, #137, .T. ) ;
#204 = AXIS2_PLACEMENT_3D ( 'NONE', #111, #202, #122 ) ;
#205 = ORIENTED_EDGE ( 'NONE', *, *, #176, .T. ) ;
#206 = ORIENTED_EDGE ( 'NONE', *, *, #74, .T. ) ;
#207 = APPROVAL_PERSON_ORGANIZATION ( #128, #161, #200 ) ;
#208 = ADVANCED_FACE ( 'NONE', ( #182 ), #135, .F. ) ;
#209 = COORDINATED_UNIVERSAL_TIME_OFFSET ( 8, 0, .BEHIND. ) ;
#210 = PERSON_AND_ORGANIZATION_ROLE ( 'design_owner' ) ;
#211 = PERSON_AND_ORGANIZATION_ROLE ( 'design_supplier' ) ;
#212 = CIRCLE ( 'NONE', #204, 1.500000000000000200 ) ;
#213 = EDGE_CURVE ( 'NONE', #199, #13, #134, .T. ) ;
ENDSEC;
END-ISO-10303-21;
