ISO-10303-21;
HEADER;
FILE_DESCRIPTION (( 'STEP AP203' ),
    '1' );
FILE_NAME ('300303.STEP',
    '2017-01-17T18:18:33',
    ( 'temp' ),
    ( '' ),
    'SwSTEP 2.0',
    'SolidWorks 2016',
    '' );
FILE_SCHEMA (( 'CONFIG_CONTROL_DESIGN' ));
ENDSEC;

DATA;
#1 = ORIENTED_EDGE ( 'NONE', *, *, #84, .T. ) ;
#2 = APPLICATION_PROTOCOL_DEFINITION ( 'international standard', 'config_control_design', 1994, #4 ) ;
#3 = APPROVAL_ROLE ( '' ) ;
#4 = APPLICATION_CONTEXT ( 'configuration controlled 3d designs of mechanical parts and assemblies' ) ;
#5 = VERTEX_POINT ( 'NONE', #32 ) ;
#6 = CC_DESIGN_DATE_AND_TIME_ASSIGNMENT ( #25, #173, ( #56 ) ) ;
#7 = PERSON_AND_ORGANIZATION ( #132, #205 ) ;
#8 =( NAMED_UNIT ( * ) SI_UNIT ( $, .STERADIAN. ) SOLID_ANGLE_UNIT ( ) );
#9 =( NAMED_UNIT ( * ) PLANE_ANGLE_UNIT ( ) SI_UNIT ( $, .RADIAN. ) );
#10 = CC_DESIGN_APPROVAL ( #114, ( #56 ) ) ;
#11 =( CONVERSION_BASED_UNIT ( 'INCH', #112 ) LENGTH_UNIT ( ) NAMED_UNIT ( #59 ) );
#12 = AXIS2_PLACEMENT_3D ( 'NONE', #83, #82, #71 ) ;
#13 = SECURITY_CLASSIFICATION ( '', '', #185 ) ;
#14 = CALENDAR_DATE ( 2017, 17, 1 ) ;
#15 = CARTESIAN_POINT ( 'NONE',  ( 0.0000000000000000000, 0.0000000000000000000, 0.0000000000000000000 ) ) ;
#16 = ORIENTED_EDGE ( 'NONE', *, *, #31, .T. ) ;
#17 = DIRECTION ( 'NONE',  ( -1.000000000000000000, 0.0000000000000000000, 0.0000000000000000000 ) ) ;
#18 = ADVANCED_FACE ( 'NONE', ( #98 ), #87, .T. ) ;
#19 = ORIENTED_EDGE ( 'NONE', *, *, #135, .F. ) ;
#20 = DIRECTION ( 'NONE',  ( -0.0000000000000000000, -0.0000000000000000000, -1.000000000000000000 ) ) ;
#21 = PERSON_AND_ORGANIZATION_ROLE ( 'classification_officer' ) ;
#22 = APPROVAL_STATUS ( 'not_yet_approved' ) ;
#23 = CLOSED_SHELL ( 'NONE', ( #18, #155, #170, #89, #106 ) ) ;
#24 = CALENDAR_DATE ( 2017, 17, 1 ) ;
#25 = DATE_AND_TIME ( #102, #144 ) ;
#26 = CC_DESIGN_PERSON_AND_ORGANIZATION_ASSIGNMENT ( #91, #129, ( #56 ) ) ;
#27 = CARTESIAN_POINT ( 'NONE',  ( 9.460396523413304100E-017, -1.545000000000000200, 0.0000000000000000000 ) ) ;
#28 = PRODUCT_RELATED_PRODUCT_CATEGORY ( 'detail', '', ( #97 ) ) ;
#29 = COORDINATED_UNIVERSAL_TIME_OFFSET ( 8, 0, .BEHIND. ) ;
#30 = CARTESIAN_POINT ( 'NONE',  ( -5.237222008264700000E-015, -1.544999999999999700, 1.500000000000000200 ) ) ;
#31 = EDGE_CURVE ( 'NONE', #208, #115, #199, .T. ) ;
#32 = CARTESIAN_POINT ( 'NONE',  ( 1.500000000000000200, -1.544999999999999700, 0.0000000000000000000 ) ) ;
#33 = ORIENTED_EDGE ( 'NONE', *, *, #109, .T. ) ;
#34 = VERTEX_POINT ( 'NONE', #44 ) ;
#35 =( LENGTH_UNIT ( ) NAMED_UNIT ( * ) SI_UNIT ( $, .METRE. ) );
#36 = ORIENTED_EDGE ( 'NONE', *, *, #67, .F. ) ;
#37 = PERSON_AND_ORGANIZATION ( #132, #205 ) ;
#38 = VECTOR ( 'NONE', #165, 39.37007874015748100 ) ;
#39 = DATE_TIME_ROLE ( 'classification_date' ) ;
#40 = EDGE_LOOP ( 'NONE', ( #200, #1, #33, #16 ) ) ;
#41 = AXIS2_PLACEMENT_3D ( 'NONE', #163, #182, #101 ) ;
#42 = ORIENTED_EDGE ( 'NONE', *, *, #184, .T. ) ;
#43 = PRODUCT_DEFINITION_FORMATION_WITH_SPECIFIED_SOURCE ( 'ANY', '', #97, .NOT_KNOWN. ) ;
#44 = CARTESIAN_POINT ( 'NONE',  ( 1.544999999999999700, -1.544999999999999700, 0.0000000000000000000 ) ) ;
#45 = DIRECTION ( 'NONE',  ( -1.000000000000000000, 0.0000000000000000000, 0.0000000000000000000 ) ) ;
#46 = APPLICATION_CONTEXT ( 'configuration controlled 3d designs of mechanical parts and assemblies' ) ;
#47 = APPROVAL ( #95, 'UNSPECIFIED' ) ;
#48 = DATE_AND_TIME ( #24, #99 ) ;
#49 = CC_DESIGN_APPROVAL ( #212, ( #13 ) ) ;
#50 = VERTEX_POINT ( 'NONE', #178 ) ;
#51 = DIRECTION ( 'NONE',  ( -1.000000000000000000, 0.0000000000000000000, 0.0000000000000000000 ) ) ;
#52 = FACE_OUTER_BOUND ( 'NONE', #73, .T. ) ;
#53 = LOCAL_TIME ( 10, 18, 33.00000000000000000, #29 ) ;
#54 = DIRECTION ( 'NONE',  ( -3.491481338843133000E-015, 0.0000000000000000000, 1.000000000000000000 ) ) ;
#55 = PLANE ( 'NONE',  #64 ) ;
#56 = PRODUCT_DEFINITION ( 'UNKNOWN', '', #43, #193 ) ;
#57 = FACE_OUTER_BOUND ( 'NONE', #154, .T. ) ;
#58 = APPROVAL_DATE_TIME ( #48, #114 ) ;
#59 = DIMENSIONAL_EXPONENTS ( 1.000000000000000000, 0.0000000000000000000, 0.0000000000000000000, 0.0000000000000000000, 0.0000000000000000000, 0.0000000000000000000, 0.0000000000000000000 ) ;
#60 = AXIS2_PLACEMENT_3D ( 'NONE', #122, #186, #141 ) ;
#61 = CALENDAR_DATE ( 2017, 17, 1 ) ;
#62 = PERSON_AND_ORGANIZATION_ROLE ( 'design_supplier' ) ;
#63 = DIRECTION ( 'NONE',  ( -1.000000000000000000, 0.0000000000000000000, -3.491481338843133000E-015 ) ) ;
#64 = AXIS2_PLACEMENT_3D ( 'NONE', #136, #126, #51 ) ;
#65 = COORDINATED_UNIVERSAL_TIME_OFFSET ( 8, 0, .BEHIND. ) ;
#66 = UNCERTAINTY_MEASURE_WITH_UNIT (LENGTH_MEASURE( 1.000000000000000100E-005 ), #11, 'distance_accuracy_value', 'NONE');
#67 = EDGE_CURVE ( 'NONE', #208, #5, #204, .T. ) ;
#68 = CARTESIAN_POINT ( 'NONE',  ( 0.0000000000000000000, 0.0000000000000000000, 0.0000000000000000000 ) ) ;
#69 = DIRECTION ( 'NONE',  ( 3.491481338843133000E-015, 0.0000000000000000000, -1.000000000000000000 ) ) ;
#70 = PERSON_AND_ORGANIZATION ( #132, #205 ) ;
#71 = DIRECTION ( 'NONE',  ( 3.491481338843133000E-015, 0.0000000000000000000, -1.000000000000000000 ) ) ;
#72 = ORIENTED_EDGE ( 'NONE', *, *, #67, .T. ) ;
#73 = EDGE_LOOP ( 'NONE', ( #148, #36, #130 ) ) ;
#74 = CC_DESIGN_PERSON_AND_ORGANIZATION_ASSIGNMENT ( #169, #77, ( #43 ) ) ;
#75 = CARTESIAN_POINT ( 'NONE',  ( -5.237222008264700000E-015, -1.544999999999999700, 1.500000000000000200 ) ) ;
#76 = PRODUCT_DEFINITION_SHAPE ( 'NONE', 'NONE',  #56 ) ;
#77 = PERSON_AND_ORGANIZATION_ROLE ( 'creator' ) ;
#78 = LINE ( 'NONE', #68, #207 ) ;
#79 = EDGE_CURVE ( 'NONE', #5, #34, #143, .T. ) ;
#80 = ORIENTED_EDGE ( 'NONE', *, *, #79, .T. ) ;
#81 =( GEOMETRIC_REPRESENTATION_CONTEXT ( 3 ) GLOBAL_UNCERTAINTY_ASSIGNED_CONTEXT ( ( #66 ) ) GLOBAL_UNIT_ASSIGNED_CONTEXT ( ( #11, #9, #8 ) ) REPRESENTATION_CONTEXT ( 'NONE', 'WORKASPACE' ) );
#82 = DIRECTION ( 'NONE',  ( -1.000000000000000000, 0.0000000000000000000, -3.491481338843133400E-015 ) ) ;
#83 = CARTESIAN_POINT ( 'NONE',  ( -3.303079791955400600E-031, -1.545000000000000200, 9.460396523413304100E-017 ) ) ;
#84 = EDGE_CURVE ( 'NONE', #50, #120, #78, .T. ) ;
#85 = PERSON_AND_ORGANIZATION ( #132, #205 ) ;
#86 = COORDINATED_UNIVERSAL_TIME_OFFSET ( 8, 0, .BEHIND. ) ;
#87 = SPHERICAL_SURFACE ( 'NONE', #41, 1.545000000000000200 ) ;
#88 = CIRCLE ( 'NONE', #12, 1.545000000000000200 ) ;
#89 = ADVANCED_FACE ( 'NONE', ( #123 ), #139, .F. ) ;
#90 = AXIS2_PLACEMENT_3D ( 'NONE', #134, #146, #140 ) ;
#91 = PERSON_AND_ORGANIZATION ( #132, #205 ) ;
#92 = PERSON_AND_ORGANIZATION ( #132, #205 ) ;
#93 = ORIENTED_EDGE ( 'NONE', *, *, #135, .T. ) ;
#94 = CARTESIAN_POINT ( 'NONE',  ( 0.0000000000000000000, -1.544999999999999700, 0.0000000000000000000 ) ) ;
#95 = APPROVAL_STATUS ( 'not_yet_approved' ) ;
#96 = PERSON_AND_ORGANIZATION_ROLE ( 'design_owner' ) ;
#97 = PRODUCT ( '300303', '300303', '', ( #188 ) ) ;
#98 = FACE_OUTER_BOUND ( 'NONE', #213, .T. ) ;
#99 = LOCAL_TIME ( 10, 18, 33.00000000000000000, #86 ) ;
#100 = CARTESIAN_POINT ( 'NONE',  ( 0.0000000000000000000, -1.544999999999999700, 0.0000000000000000000 ) ) ;
#101 = DIRECTION ( 'NONE',  ( -3.491481338843133400E-015, 0.0000000000000000000, 1.000000000000000000 ) ) ;
#102 = CALENDAR_DATE ( 2017, 17, 1 ) ;
#103 = CC_DESIGN_PERSON_AND_ORGANIZATION_ASSIGNMENT ( #70, #96, ( #97 ) ) ;
#104 = APPROVAL_DATE_TIME ( #128, #47 ) ;
#105 = ORIENTED_EDGE ( 'NONE', *, *, #184, .F. ) ;
#106 = ADVANCED_FACE ( 'NONE', ( #159 ), #55, .T. ) ;
#107 = CARTESIAN_POINT ( 'NONE',  ( -3.303079791955400600E-031, -1.545000000000000200, 9.460396523413304100E-017 ) ) ;
#108 = CIRCLE ( 'NONE', #196, 1.500000000000000200 ) ;
#109 = EDGE_CURVE ( 'NONE', #120, #208, #152, .T. ) ;
#110 = DIRECTION ( 'NONE',  ( -0.0000000000000000000, 1.000000000000000000, -0.0000000000000000000 ) ) ;
#111 = CIRCLE ( 'NONE', #179, 1.545000000000000200 ) ;
#112 = LENGTH_MEASURE_WITH_UNIT ( LENGTH_MEASURE( 0.02539999999999999900 ), #35 );
#113 = DIRECTION ( 'NONE',  ( 1.000000000000000000, 0.0000000000000000000, 0.0000000000000000000 ) ) ;
#114 = APPROVAL ( #22, 'UNSPECIFIED' ) ;
#115 = VERTEX_POINT ( 'NONE', #147 ) ;
#116 = DATE_AND_TIME ( #14, #127 ) ;
#117 = CARTESIAN_POINT ( 'NONE',  ( 9.460396523413304100E-017, -1.545000000000000200, 0.0000000000000000000 ) ) ;
#118 = DIRECTION ( 'NONE',  ( 0.0000000000000000000, 0.0000000000000000000, 1.000000000000000000 ) ) ;
#119 = CC_DESIGN_PERSON_AND_ORGANIZATION_ASSIGNMENT ( #92, #21, ( #13 ) ) ;
#120 = VERTEX_POINT ( 'NONE', #164 ) ;
#121 = LOCAL_TIME ( 10, 18, 33.00000000000000000, #131 ) ;
#122 = CARTESIAN_POINT ( 'NONE',  ( -5.237222008264700000E-015, -1.544999999999999700, 1.500000000000000200 ) ) ;
#123 = FACE_OUTER_BOUND ( 'NONE', #40, .T. ) ;
#124 = CC_DESIGN_PERSON_AND_ORGANIZATION_ASSIGNMENT ( #7, #62, ( #43 ) ) ;
#125 = EDGE_LOOP ( 'NONE', ( #19, #195, #198, #153 ) ) ;
#126 = DIRECTION ( 'NONE',  ( -0.0000000000000000000, 0.0000000000000000000, -1.000000000000000000 ) ) ;
#127 = LOCAL_TIME ( 10, 18, 33.00000000000000000, #65 ) ;
#128 = DATE_AND_TIME ( #176, #121 ) ;
#129 = PERSON_AND_ORGANIZATION_ROLE ( 'creator' ) ;
#130 = ORIENTED_EDGE ( 'NONE', *, *, #109, .F. ) ;
#131 = COORDINATED_UNIVERSAL_TIME_OFFSET ( 8, 0, .BEHIND. ) ;
#132 = PERSON ( 'UNSPECIFIED', 'UNSPECIFIED', 'UNSPECIFIED', ('UNSPECIFIED'), ('UNSPECIFIED'), ('UNSPECIFIED') ) ;
#133 = DIRECTION ( 'NONE',  ( 1.137559009093340600E-029, -1.000000000000000000, -3.258098493719170800E-015 ) ) ;
#134 = CARTESIAN_POINT ( 'NONE',  ( -3.303079791955400600E-031, -1.545000000000000200, 9.460396523413304100E-017 ) ) ;
#135 = EDGE_CURVE ( 'NONE', #34, #50, #111, .T. ) ;
#136 = CARTESIAN_POINT ( 'NONE',  ( 9.460396523413304100E-017, -1.545000000000000200, 0.0000000000000000000 ) ) ;
#137 = AXIS2_PLACEMENT_3D ( 'NONE', #150, #160, #194 ) ;
#138 = PLANE ( 'NONE',  #60 ) ;
#139 = PLANE ( 'NONE',  #90 ) ;
#140 = DIRECTION ( 'NONE',  ( 3.491481338843133000E-015, 0.0000000000000000000, -1.000000000000000000 ) ) ;
#141 = DIRECTION ( 'NONE',  ( 0.0000000000000000000, 0.0000000000000000000, 1.000000000000000000 ) ) ;
#142 = APPROVAL_PERSON_ORGANIZATION ( #149, #114, #3 ) ;
#143 = LINE ( 'NONE', #206, #38 ) ;
#144 = LOCAL_TIME ( 10, 18, 33.00000000000000000, #172 ) ;
#145 = AXIS2_PLACEMENT_3D ( 'NONE', #107, #63, #69 ) ;
#146 = DIRECTION ( 'NONE',  ( 1.000000000000000000, 0.0000000000000000000, 3.491481338843133000E-015 ) ) ;
#147 = CARTESIAN_POINT ( 'NONE',  ( -5.394338668512640100E-015, -1.544999999999999700, 1.544999999999999700 ) ) ;
#148 = ORIENTED_EDGE ( 'NONE', *, *, #190, .T. ) ;
#149 = PERSON_AND_ORGANIZATION ( #132, #205 ) ;
#150 = CARTESIAN_POINT ( 'NONE',  ( -3.303079791955400600E-031, -1.545000000000000200, 9.460396523413304100E-017 ) ) ;
#151 = APPROVAL_ROLE ( '' ) ;
#152 = CIRCLE ( 'NONE', #137, 1.500000000000000200 ) ;
#153 = ORIENTED_EDGE ( 'NONE', *, *, #84, .F. ) ;
#154 = EDGE_LOOP ( 'NONE', ( #72, #80, #105, #211 ) ) ;
#155 = ADVANCED_FACE ( 'NONE', ( #57 ), #138, .F. ) ;
#156 = APPROVAL_DATE_TIME ( #116, #212 ) ;
#157 = CC_DESIGN_APPROVAL ( #47, ( #43 ) ) ;
#158 = APPLICATION_PROTOCOL_DEFINITION ( 'international standard', 'config_control_design', 1994, #46 ) ;
#159 = FACE_OUTER_BOUND ( 'NONE', #125, .T. ) ;
#160 = DIRECTION ( 'NONE',  ( 1.000000000000000000, 0.0000000000000000000, 3.491481338843133400E-015 ) ) ;
#161 = DIRECTION ( 'NONE',  ( 0.0000000000000000000, 0.0000000000000000000, 1.000000000000000000 ) ) ;
#162 = EDGE_CURVE ( 'NONE', #115, #50, #88, .T. ) ;
#163 = CARTESIAN_POINT ( 'NONE',  ( -3.303079791955400600E-031, -1.545000000000000200, 9.460396523413304100E-017 ) ) ;
#164 = CARTESIAN_POINT ( 'NONE',  ( 5.119015540920024600E-031, -0.04499999999999992900, -1.466144322173624500E-016 ) ) ;
#165 = DIRECTION ( 'NONE',  ( 1.000000000000000000, 0.0000000000000000000, 0.0000000000000000000 ) ) ;
#166 = CC_DESIGN_DATE_AND_TIME_ASSIGNMENT ( #192, #39, ( #13 ) ) ;
#167 = SPHERICAL_SURFACE ( 'NONE', #145, 1.500000000000000200 ) ;
#168 = AXIS2_PLACEMENT_3D ( 'NONE', #100, #180, #161 ) ;
#169 = PERSON_AND_ORGANIZATION ( #132, #205 ) ;
#170 = ADVANCED_FACE ( 'NONE', ( #52 ), #167, .F. ) ;
#171 = ORIENTED_EDGE ( 'NONE', *, *, #162, .F. ) ;
#172 = COORDINATED_UNIVERSAL_TIME_OFFSET ( 8, 0, .BEHIND. ) ;
#173 = DATE_TIME_ROLE ( 'creation_date' ) ;
#174 = APPROVAL_PERSON_ORGANIZATION ( #85, #212, #151 ) ;
#175 = AXIS2_PLACEMENT_3D ( 'NONE', #94, #110, #177 ) ;
#176 = CALENDAR_DATE ( 2017, 17, 1 ) ;
#177 = DIRECTION ( 'NONE',  ( 0.0000000000000000000, 0.0000000000000000000, 1.000000000000000000 ) ) ;
#178 = CARTESIAN_POINT ( 'NONE',  ( 0.0000000000000000000, 0.0000000000000000000, 0.0000000000000000000 ) ) ;
#179 = AXIS2_PLACEMENT_3D ( 'NONE', #117, #118, #45 ) ;
#180 = DIRECTION ( 'NONE',  ( -0.0000000000000000000, 1.000000000000000000, -0.0000000000000000000 ) ) ;
#181 = ADVANCED_BREP_SHAPE_REPRESENTATION ( '300303', ( #209, #183 ), #81 ) ;
#182 = DIRECTION ( 'NONE',  ( 1.000000000000000000, 0.0000000000000000000, 3.491481338843133400E-015 ) ) ;
#183 = AXIS2_PLACEMENT_3D ( 'NONE', #15, #202, #113 ) ;
#184 = EDGE_CURVE ( 'NONE', #115, #34, #187, .T. ) ;
#185 = SECURITY_CLASSIFICATION_LEVEL ( 'unclassified' ) ;
#186 = DIRECTION ( 'NONE',  ( -0.0000000000000000000, 1.000000000000000000, 0.0000000000000000000 ) ) ;
#187 = CIRCLE ( 'NONE', #175, 1.544999999999999700 ) ;
#188 = MECHANICAL_CONTEXT ( 'NONE', #4, 'mechanical' ) ;
#189 = APPROVAL_PERSON_ORGANIZATION ( #37, #47, #201 ) ;
#190 = EDGE_CURVE ( 'NONE', #120, #5, #108, .T. ) ;
#191 = VECTOR ( 'NONE', #54, 39.37007874015748100 ) ;
#192 = DATE_AND_TIME ( #61, #53 ) ;
#193 = DESIGN_CONTEXT ( 'detailed design', #46, 'design' ) ;
#194 = DIRECTION ( 'NONE',  ( 3.491481338843133000E-015, 0.0000000000000000000, -1.000000000000000000 ) ) ;
#195 = ORIENTED_EDGE ( 'NONE', *, *, #79, .F. ) ;
#196 = AXIS2_PLACEMENT_3D ( 'NONE', #27, #20, #17 ) ;
#197 = SHAPE_DEFINITION_REPRESENTATION ( #76, #181 ) ;
#198 = ORIENTED_EDGE ( 'NONE', *, *, #190, .F. ) ;
#199 = LINE ( 'NONE', #75, #191 ) ;
#200 = ORIENTED_EDGE ( 'NONE', *, *, #162, .T. ) ;
#201 = APPROVAL_ROLE ( '' ) ;
#202 = DIRECTION ( 'NONE',  ( 0.0000000000000000000, 0.0000000000000000000, 1.000000000000000000 ) ) ;
#203 = CC_DESIGN_SECURITY_CLASSIFICATION ( #13, ( #43 ) ) ;
#204 = CIRCLE ( 'NONE', #168, 1.500000000000000200 ) ;
#205 = ORGANIZATION ( 'UNSPECIFIED', 'UNSPECIFIED', '' ) ;
#206 = CARTESIAN_POINT ( 'NONE',  ( 1.500000000000000200, -1.544999999999999700, 0.0000000000000000000 ) ) ;
#207 = VECTOR ( 'NONE', #133, 39.37007874015748100 ) ;
#208 = VERTEX_POINT ( 'NONE', #30 ) ;
#209 = MANIFOLD_SOLID_BREP ( 'Revolve1', #23 ) ;
#210 = APPROVAL_STATUS ( 'not_yet_approved' ) ;
#211 = ORIENTED_EDGE ( 'NONE', *, *, #31, .F. ) ;
#212 = APPROVAL ( #210, 'UNSPECIFIED' ) ;
#213 = EDGE_LOOP ( 'NONE', ( #42, #93, #171 ) ) ;
ENDSEC;
END-ISO-10303-21;
