ISO-10303-21;
HEADER;
FILE_DESCRIPTION (( 'STEP AP203' ),
    '1' );
FILE_NAME ('1_2in CORNER FILLER 18 Ga.STEP',
    '2016-12-23T01:08:07',
    ( 'temp' ),
    ( '' ),
    'SwSTEP 2.0',
    'SolidWorks 2016',
    '' );
FILE_SCHEMA (( 'CONFIG_CONTROL_DESIGN' ));
ENDSEC;

DATA;
#1 = PLANE ( 'NONE',  #125 ) ;
#2 = MANIFOLD_SOLID_BREP ( 'Revolve1', #19 ) ;
#3 = PERSON ( 'UNSPECIFIED', 'UNSPECIFIED', 'UNSPECIFIED', ('UNSPECIFIED'), ('UNSPECIFIED'), ('UNSPECIFIED') ) ;
#4 = DIRECTION ( 'NONE',  ( 1.000000000000000000, 0.0000000000000000000, -0.0000000000000000000 ) ) ;
#5 = DIRECTION ( 'NONE',  ( 1.000000000000000000, 3.061616997868381700E-016, 0.0000000000000000000 ) ) ;
#6 = CALENDAR_DATE ( 2016, 22, 12 ) ;
#7 = ADVANCED_FACE ( 'NONE', ( #34 ), #142, .T. ) ;
#8 = APPLICATION_PROTOCOL_DEFINITION ( 'international standard', 'config_control_design', 1994, #17 ) ;
#9 = FACE_OUTER_BOUND ( 'NONE', #83, .T. ) ;
#10 = EDGE_CURVE ( 'NONE', #89, #26, #33, .T. ) ;
#11 = CC_DESIGN_DATE_AND_TIME_ASSIGNMENT ( #152, #123, ( #104 ) ) ;
#12 = APPROVAL_DATE_TIME ( #57, #138 ) ;
#13 = PERSON_AND_ORGANIZATION ( #3, #182 ) ;
#14 = EDGE_LOOP ( 'NONE', ( #59, #30, #166 ) ) ;
#15 = DATE_TIME_ROLE ( 'classification_date' ) ;
#16 = DIRECTION ( 'NONE',  ( -3.491481338843133400E-015, -1.068957861474239400E-030, -1.000000000000000000 ) ) ;
#17 = APPLICATION_CONTEXT ( 'configuration controlled 3d designs of mechanical parts and assemblies' ) ;
#18 = ADVANCED_FACE ( 'NONE', ( #24 ), #77, .F. ) ;
#19 = CLOSED_SHELL ( 'NONE', ( #18, #90, #7, #79, #39 ) ) ;
#20 = DIRECTION ( 'NONE',  ( 1.000000000000000000, 3.061616997868381700E-016, -3.491481338843133000E-015 ) ) ;
#21 = CIRCLE ( 'NONE', #55, 0.5469999999999996000 ) ;
#22 = PRODUCT ( '1_2in CORNER FILLER 18 Ga', '1_2in CORNER FILLER 18 Ga', '', ( #179 ) ) ;
#23 = VERTEX_POINT ( 'NONE', #28 ) ;
#24 = FACE_OUTER_BOUND ( 'NONE', #149, .T. ) ;
#25 = LOCAL_TIME ( 17, 8, 7.000000000000000000, #92 ) ;
#26 = VERTEX_POINT ( 'NONE', #188 ) ;
#27 = CC_DESIGN_PERSON_AND_ORGANIZATION_ASSIGNMENT ( #115, #150, ( #191 ) ) ;
#28 = CARTESIAN_POINT ( 'NONE',  ( -1.530808498934189400E-016, 0.4999999999999996100, -3.032960542342103800E-032 ) ) ;
#29 = CARTESIAN_POINT ( 'NONE',  ( 0.0000000000000000000, 0.0000000000000000000, 0.0000000000000000000 ) ) ;
#30 = ORIENTED_EDGE ( 'NONE', *, *, #88, .F. ) ;
#31 = CARTESIAN_POINT ( 'NONE',  ( -1.745740669421565300E-015, -1.282205198707282300E-016, -0.4999999999999996100 ) ) ;
#32 = CALENDAR_DATE ( 2016, 22, 12 ) ;
#33 = CIRCLE ( 'NONE', #71, 0.5469999999999996000 ) ;
#34 = FACE_OUTER_BOUND ( 'NONE', #14, .T. ) ;
#35 = EDGE_LOOP ( 'NONE', ( #64, #175, #171, #172 ) ) ;
#36 = AXIS2_PLACEMENT_3D ( 'NONE', #31, #154, #148 ) ;
#37 = LOCAL_TIME ( 17, 8, 7.000000000000000000, #144 ) ;
#38 = ORIENTED_EDGE ( 'NONE', *, *, #61, .T. ) ;
#39 = ADVANCED_FACE ( 'NONE', ( #9 ), #1, .T. ) ;
#40 = DATE_AND_TIME ( #32, #25 ) ;
#41 = ORIENTED_EDGE ( 'NONE', *, *, #74, .F. ) ;
#42 = AXIS2_PLACEMENT_3D ( 'NONE', #97, #180, #5 ) ;
#43 = PERSON_AND_ORGANIZATION ( #3, #182 ) ;
#44 = CARTESIAN_POINT ( 'NONE',  ( 0.0000000000000000000, 0.0000000000000000000, 0.0000000000000000000 ) ) ;
#45 = DIRECTION ( 'NONE',  ( -3.491481338843133400E-015, -3.061616997868392000E-016, -1.000000000000000000 ) ) ;
#46 = DIRECTION ( 'NONE',  ( -3.491481338843133000E-015, -2.449293598294715800E-016, -1.000000000000000000 ) ) ;
#47 = APPROVAL ( #80, 'UNSPECIFIED' ) ;
#48 =( LENGTH_UNIT ( ) NAMED_UNIT ( * ) SI_UNIT ( $, .METRE. ) );
#49 = CC_DESIGN_APPROVAL ( #47, ( #191 ) ) ;
#50 = DIRECTION ( 'NONE',  ( 1.000000000000000000, 3.061616997868381700E-016, -3.491481338843133400E-015 ) ) ;
#51 = DESIGN_CONTEXT ( 'detailed design', #17, 'design' ) ;
#52 = APPROVAL_STATUS ( 'not_yet_approved' ) ;
#53 = DIRECTION ( 'NONE',  ( 1.000000000000000000, 3.061616997868381700E-016, -3.491481338843133400E-015 ) ) ;
#54 = CARTESIAN_POINT ( 'NONE',  ( 0.0000000000000000000, 0.0000000000000000000, 0.0000000000000000000 ) ) ;
#55 = AXIS2_PLACEMENT_3D ( 'NONE', #29, #190, #211 ) ;
#56 = APPROVAL ( #176, 'UNSPECIFIED' ) ;
#57 = DATE_AND_TIME ( #121, #105 ) ;
#58 = DIRECTION ( 'NONE',  ( -3.491481338843133000E-015, -3.061616997868392500E-016, -1.000000000000000000 ) ) ;
#59 = ORIENTED_EDGE ( 'NONE', *, *, #68, .F. ) ;
#60 = ORIENTED_EDGE ( 'NONE', *, *, #74, .T. ) ;
#61 = EDGE_CURVE ( 'NONE', #23, #114, #72, .T. ) ;
#62 = CC_DESIGN_PERSON_AND_ORGANIZATION_ASSIGNMENT ( #76, #201, ( #22 ) ) ;
#63 = PERSON_AND_ORGANIZATION ( #3, #182 ) ;
#64 = ORIENTED_EDGE ( 'NONE', *, *, #61, .F. ) ;
#65 = CARTESIAN_POINT ( 'NONE',  ( 0.0000000000000000000, 0.0000000000000000000, 0.0000000000000000000 ) ) ;
#66 =( NAMED_UNIT ( * ) SI_UNIT ( $, .STERADIAN. ) SOLID_ANGLE_UNIT ( ) );
#67 = DIRECTION ( 'NONE',  ( 1.000000000000000000, 3.061616997868381700E-016, -3.491481338843133400E-015 ) ) ;
#68 = EDGE_CURVE ( 'NONE', #153, #26, #21, .T. ) ;
#69 = PRODUCT_DEFINITION_SHAPE ( 'NONE', 'NONE',  #104 ) ;
#70 = CARTESIAN_POINT ( 'NONE',  ( 0.0000000000000000000, 0.0000000000000000000, 0.0000000000000000000 ) ) ;
#71 = AXIS2_PLACEMENT_3D ( 'NONE', #103, #67, #132 ) ;
#72 = CIRCLE ( 'NONE', #155, 0.4999999999999996100 ) ;
#73 = CIRCLE ( 'NONE', #187, 0.4999999999999996100 ) ;
#74 = EDGE_CURVE ( 'NONE', #23, #116, #73, .T. ) ;
#75 = CC_DESIGN_PERSON_AND_ORGANIZATION_ASSIGNMENT ( #63, #198, ( #120 ) ) ;
#76 = PERSON_AND_ORGANIZATION ( #3, #182 ) ;
#77 = SPHERICAL_SURFACE ( 'NONE', #85, 0.4999999999999996100 ) ;
#78 = CC_DESIGN_APPROVAL ( #138, ( #120 ) ) ;
#79 = ADVANCED_FACE ( 'NONE', ( #169 ), #133, .F. ) ;
#80 = APPROVAL_STATUS ( 'not_yet_approved' ) ;
#81 = PERSON_AND_ORGANIZATION ( #3, #182 ) ;
#82 = SECURITY_CLASSIFICATION_LEVEL ( 'unclassified' ) ;
#83 = EDGE_LOOP ( 'NONE', ( #60, #200, #139, #127 ) ) ;
#84 =( CONVERSION_BASED_UNIT ( 'INCH', #107 ) LENGTH_UNIT ( ) NAMED_UNIT ( #174 ) );
#85 = AXIS2_PLACEMENT_3D ( 'NONE', #54, #50, #135 ) ;
#86 = PERSON_AND_ORGANIZATION_ROLE ( 'design_supplier' ) ;
#87 = CARTESIAN_POINT ( 'NONE',  ( 0.0000000000000000000, 0.0000000000000000000, 0.0000000000000000000 ) ) ;
#88 = EDGE_CURVE ( 'NONE', #89, #153, #197, .T. ) ;
#89 = VERTEX_POINT ( 'NONE', #91 ) ;
#90 = ADVANCED_FACE ( 'NONE', ( #117 ), #147, .T. ) ;
#91 = CARTESIAN_POINT ( 'NONE',  ( -1.909840292347192700E-015, -1.339763598267208600E-016, -0.5469999999999996000 ) ) ;
#92 = COORDINATED_UNIVERSAL_TIME_OFFSET ( 8, 0, .BEHIND. ) ;
#93 = DIRECTION ( 'NONE',  ( 1.000000000000000000, 0.0000000000000000000, 0.0000000000000000000 ) ) ;
#94 = COORDINATED_UNIVERSAL_TIME_OFFSET ( 8, 0, .BEHIND. ) ;
#95 = PERSON_AND_ORGANIZATION ( #3, #182 ) ;
#96 = LINE ( 'NONE', #119, #122 ) ;
#97 = CARTESIAN_POINT ( 'NONE',  ( 4.101843005580173300E-032, -1.339763598267202700E-016, 0.0000000000000000000 ) ) ;
#98 = PERSON_AND_ORGANIZATION_ROLE ( 'creator' ) ;
#99 = EDGE_CURVE ( 'NONE', #114, #116, #109, .T. ) ;
#100 = APPROVAL_PERSON_ORGANIZATION ( #95, #138, #130 ) ;
#101 = AXIS2_PLACEMENT_3D ( 'NONE', #44, #20, #58 ) ;
#102 = EDGE_LOOP ( 'NONE', ( #206, #199, #108, #209 ) ) ;
#103 = CARTESIAN_POINT ( 'NONE',  ( 0.0000000000000000000, 0.0000000000000000000, 0.0000000000000000000 ) ) ;
#104 = PRODUCT_DEFINITION ( 'UNKNOWN', '', #191, #51 ) ;
#105 = LOCAL_TIME ( 17, 8, 7.000000000000000000, #94 ) ;
#106 = CARTESIAN_POINT ( 'NONE',  ( 0.0000000000000000000, 0.0000000000000000000, 0.0000000000000000000 ) ) ;
#107 = LENGTH_MEASURE_WITH_UNIT ( LENGTH_MEASURE( 0.02539999999999999900 ), #48 );
#108 = ORIENTED_EDGE ( 'NONE', *, *, #99, .F. ) ;
#109 = CIRCLE ( 'NONE', #212, 0.4999999999999996100 ) ;
#110 = CARTESIAN_POINT ( 'NONE',  ( -1.745740669421565300E-015, -1.224646799147356900E-016, -0.4999999999999996100 ) ) ;
#111 = LOCAL_TIME ( 17, 8, 7.000000000000000000, #137 ) ;
#112 = EDGE_CURVE ( 'NONE', #116, #153, #96, .T. ) ;
#113 = COORDINATED_UNIVERSAL_TIME_OFFSET ( 8, 0, .BEHIND. ) ;
#114 = VERTEX_POINT ( 'NONE', #164 ) ;
#115 = PERSON_AND_ORGANIZATION ( #3, #182 ) ;
#116 = VERTEX_POINT ( 'NONE', #205 ) ;
#117 = FACE_OUTER_BOUND ( 'NONE', #102, .T. ) ;
#118 = AXIS2_PLACEMENT_3D ( 'NONE', #65, #53, #16 ) ;
#119 = CARTESIAN_POINT ( 'NONE',  ( 0.4999999999999996100, 3.061616997868379900E-017, 0.0000000000000000000 ) ) ;
#120 = SECURITY_CLASSIFICATION ( '', '', #82 ) ;
#121 = CALENDAR_DATE ( 2016, 22, 12 ) ;
#122 = VECTOR ( 'NONE', #159, 39.37007874015748100 ) ;
#123 = DATE_TIME_ROLE ( 'creation_date' ) ;
#124 = APPROVAL_DATE_TIME ( #204, #47 ) ;
#125 = AXIS2_PLACEMENT_3D ( 'NONE', #126, #134, #4 ) ;
#126 = CARTESIAN_POINT ( 'NONE',  ( 0.0000000000000000000, 0.0000000000000000000, 0.0000000000000000000 ) ) ;
#127 = ORIENTED_EDGE ( 'NONE', *, *, #128, .T. ) ;
#128 = EDGE_CURVE ( 'NONE', #26, #23, #186, .T. ) ;
#129 = CARTESIAN_POINT ( 'NONE',  ( 0.5469999999999996000, 3.349408995668007900E-017, 0.0000000000000000000 ) ) ;
#130 = APPROVAL_ROLE ( '' ) ;
#131 = APPROVAL_PERSON_ORGANIZATION ( #81, #56, #140 ) ;
#132 = DIRECTION ( 'NONE',  ( -3.491481338843133700E-015, -3.061616997868392500E-016, -1.000000000000000000 ) ) ;
#133 = PLANE ( 'NONE',  #101 ) ;
#134 = DIRECTION ( 'NONE',  ( 0.0000000000000000000, 0.0000000000000000000, 1.000000000000000000 ) ) ;
#135 = DIRECTION ( 'NONE',  ( -3.491481338843133400E-015, -1.068957861474239200E-030, -1.000000000000000000 ) ) ;
#136 = DIRECTION ( 'NONE',  ( -0.0000000000000000000, -0.0000000000000000000, -1.000000000000000000 ) ) ;
#137 = COORDINATED_UNIVERSAL_TIME_OFFSET ( 8, 0, .BEHIND. ) ;
#138 = APPROVAL ( #52, 'UNSPECIFIED' ) ;
#139 = ORIENTED_EDGE ( 'NONE', *, *, #68, .T. ) ;
#140 = APPROVAL_ROLE ( '' ) ;
#141 = EDGE_CURVE ( 'NONE', #114, #89, #195, .T. ) ;
#142 = SPHERICAL_SURFACE ( 'NONE', #118, 0.5469999999999996000 ) ;
#143 = DIRECTION ( 'NONE',  ( 1.000000000000000000, 0.0000000000000000000, 0.0000000000000000000 ) ) ;
#144 = COORDINATED_UNIVERSAL_TIME_OFFSET ( 8, 0, .BEHIND. ) ;
#145 = CC_DESIGN_PERSON_AND_ORGANIZATION_ASSIGNMENT ( #13, #86, ( #191 ) ) ;
#146 = VECTOR ( 'NONE', #46, 39.37007874015748100 ) ;
#147 = PLANE ( 'NONE',  #36 ) ;
#148 = DIRECTION ( 'NONE',  ( 1.000000000000000000, 3.061616997868381700E-016, 0.0000000000000000000 ) ) ;
#149 = EDGE_LOOP ( 'NONE', ( #162, #41, #38 ) ) ;
#150 = PERSON_AND_ORGANIZATION_ROLE ( 'creator' ) ;
#151 = ADVANCED_BREP_SHAPE_REPRESENTATION ( '1_2in CORNER FILLER 18 Ga', ( #2, #183 ), #208 ) ;
#152 = DATE_AND_TIME ( #165, #37 ) ;
#153 = VERTEX_POINT ( 'NONE', #129 ) ;
#154 = DIRECTION ( 'NONE',  ( 3.061616997868381700E-016, -1.000000000000000000, -0.0000000000000000000 ) ) ;
#155 = AXIS2_PLACEMENT_3D ( 'NONE', #106, #177, #45 ) ;
#156 = CC_DESIGN_PERSON_AND_ORGANIZATION_ASSIGNMENT ( #43, #98, ( #104 ) ) ;
#157 = PERSON_AND_ORGANIZATION ( #3, #182 ) ;
#158 = LOCAL_TIME ( 17, 8, 7.000000000000000000, #113 ) ;
#159 = DIRECTION ( 'NONE',  ( 1.000000000000000000, 6.123233995736766000E-017, 0.0000000000000000000 ) ) ;
#160 = CARTESIAN_POINT ( 'NONE',  ( -1.674704497834002000E-016, 0.5469999999999996000, 4.195225804790362800E-017 ) ) ;
#161 = APPLICATION_PROTOCOL_DEFINITION ( 'international standard', 'config_control_design', 1994, #194 ) ;
#162 = ORIENTED_EDGE ( 'NONE', *, *, #99, .T. ) ;
#163 = DIRECTION ( 'NONE',  ( 1.000000000000000000, 3.061616997868381700E-016, 0.0000000000000000000 ) ) ;
#164 = CARTESIAN_POINT ( 'NONE',  ( -1.745740669421565300E-015, -1.224646799147356900E-016, -0.4999999999999996100 ) ) ;
#165 = CALENDAR_DATE ( 2016, 22, 12 ) ;
#166 = ORIENTED_EDGE ( 'NONE', *, *, #10, .T. ) ;
#167 = APPROVAL_ROLE ( '' ) ;
#168 = DIRECTION ( 'NONE',  ( 3.061616997868381700E-016, -1.000000000000000000, -0.0000000000000000000 ) ) ;
#169 = FACE_OUTER_BOUND ( 'NONE', #35, .T. ) ;
#170 = VECTOR ( 'NONE', #173, 39.37007874015748100 ) ;
#171 = ORIENTED_EDGE ( 'NONE', *, *, #10, .F. ) ;
#172 = ORIENTED_EDGE ( 'NONE', *, *, #141, .F. ) ;
#173 = DIRECTION ( 'NONE',  ( 3.061616997868350600E-016, -1.000000000000000000, -8.926012350617797600E-016 ) ) ;
#174 = DIMENSIONAL_EXPONENTS ( 1.000000000000000000, 0.0000000000000000000, 0.0000000000000000000, 0.0000000000000000000, 0.0000000000000000000, 0.0000000000000000000, 0.0000000000000000000 ) ;
#175 = ORIENTED_EDGE ( 'NONE', *, *, #128, .F. ) ;
#176 = APPROVAL_STATUS ( 'not_yet_approved' ) ;
#177 = DIRECTION ( 'NONE',  ( -1.000000000000000000, -3.061616997868381700E-016, 3.491481338843133400E-015 ) ) ;
#178 = APPROVAL_PERSON_ORGANIZATION ( #157, #47, #167 ) ;
#179 = MECHANICAL_CONTEXT ( 'NONE', #194, 'mechanical' ) ;
#180 = DIRECTION ( 'NONE',  ( 3.061616997868381700E-016, -1.000000000000000000, -0.0000000000000000000 ) ) ;
#181 = CC_DESIGN_APPROVAL ( #56, ( #104 ) ) ;
#182 = ORGANIZATION ( 'UNSPECIFIED', 'UNSPECIFIED', '' ) ;
#183 = AXIS2_PLACEMENT_3D ( 'NONE', #87, #203, #93 ) ;
#184 = PRODUCT_RELATED_PRODUCT_CATEGORY ( 'detail', '', ( #22 ) ) ;
#185 = CALENDAR_DATE ( 2016, 22, 12 ) ;
#186 = LINE ( 'NONE', #160, #170 ) ;
#187 = AXIS2_PLACEMENT_3D ( 'NONE', #70, #136, #143 ) ;
#188 = CARTESIAN_POINT ( 'NONE',  ( -1.674704497834002000E-016, 0.5469999999999996000, 4.195225804790362800E-017 ) ) ;
#189 = UNCERTAINTY_MEASURE_WITH_UNIT (LENGTH_MEASURE( 1.000000000000000100E-005 ), #84, 'distance_accuracy_value', 'NONE');
#190 = DIRECTION ( 'NONE',  ( 0.0000000000000000000, 0.0000000000000000000, 1.000000000000000000 ) ) ;
#191 = PRODUCT_DEFINITION_FORMATION_WITH_SPECIFIED_SOURCE ( 'ANY', '', #22, .NOT_KNOWN. ) ;
#192 = SHAPE_DEFINITION_REPRESENTATION ( #69, #151 ) ;
#193 =( NAMED_UNIT ( * ) PLANE_ANGLE_UNIT ( ) SI_UNIT ( $, .RADIAN. ) );
#194 = APPLICATION_CONTEXT ( 'configuration controlled 3d designs of mechanical parts and assemblies' ) ;
#195 = LINE ( 'NONE', #110, #146 ) ;
#196 = CARTESIAN_POINT ( 'NONE',  ( 3.749399456654637500E-032, -1.224646799147351500E-016, 0.0000000000000000000 ) ) ;
#197 = CIRCLE ( 'NONE', #42, 0.5469999999999996000 ) ;
#198 = PERSON_AND_ORGANIZATION_ROLE ( 'classification_officer' ) ;
#199 = ORIENTED_EDGE ( 'NONE', *, *, #112, .F. ) ;
#200 = ORIENTED_EDGE ( 'NONE', *, *, #112, .T. ) ;
#201 = PERSON_AND_ORGANIZATION_ROLE ( 'design_owner' ) ;
#202 = CC_DESIGN_SECURITY_CLASSIFICATION ( #120, ( #191 ) ) ;
#203 = DIRECTION ( 'NONE',  ( 0.0000000000000000000, 0.0000000000000000000, 1.000000000000000000 ) ) ;
#204 = DATE_AND_TIME ( #6, #111 ) ;
#205 = CARTESIAN_POINT ( 'NONE',  ( 0.4999999999999996100, 3.061616997868379900E-017, 0.0000000000000000000 ) ) ;
#206 = ORIENTED_EDGE ( 'NONE', *, *, #88, .T. ) ;
#207 = DATE_AND_TIME ( #185, #158 ) ;
#208 =( GEOMETRIC_REPRESENTATION_CONTEXT ( 3 ) GLOBAL_UNCERTAINTY_ASSIGNED_CONTEXT ( ( #189 ) ) GLOBAL_UNIT_ASSIGNED_CONTEXT ( ( #84, #193, #66 ) ) REPRESENTATION_CONTEXT ( 'NONE', 'WORKASPACE' ) );
#209 = ORIENTED_EDGE ( 'NONE', *, *, #141, .T. ) ;
#210 = APPROVAL_DATE_TIME ( #207, #56 ) ;
#211 = DIRECTION ( 'NONE',  ( 1.000000000000000000, 0.0000000000000000000, 0.0000000000000000000 ) ) ;
#212 = AXIS2_PLACEMENT_3D ( 'NONE', #196, #168, #163 ) ;
#213 = CC_DESIGN_DATE_AND_TIME_ASSIGNMENT ( #40, #15, ( #120 ) ) ;
ENDSEC;
END-ISO-10303-21;
