ISO-10303-21;
HEADER;
FILE_DESCRIPTION (( 'STEP AP214' ),
    '1' );
FILE_NAME ('200507.STEP',
    '2017-03-06T17:41:46',
    ( 'temp' ),
    ( '' ),
    'SwSTEP 2.0',
    'SolidWorks 2016',
    '' );
FILE_SCHEMA (( 'AUTOMOTIVE_DESIGN' ));
ENDSEC;

DATA;
#1 = FACE_OUTER_BOUND ( 'NONE', #126, .T. ) ;
#2 = CARTESIAN_POINT ( 'NONE',  ( 0.0000000000000000000, 0.0000000000000000000, 0.0000000000000000000 ) ) ;
#3 = AXIS2_PLACEMENT_3D ( 'NONE', #87, #18, #95 ) ;
#4 = CIRCLE ( 'NONE', #19, 1.000000000000000000 ) ;
#5 = EDGE_CURVE ( 'NONE', #165, #135, #114, .T. ) ;
#6 = SURFACE_STYLE_FILL_AREA ( #57 ) ;
#7 = AXIS2_PLACEMENT_3D ( 'NONE', #158, #20, #46 ) ;
#8 = MANIFOLD_SOLID_BREP ( 'Revolve1', #122 ) ;
#9 = VECTOR ( 'NONE', #124, 39.37007874015748100 ) ;
#10 =( NAMED_UNIT ( * ) PLANE_ANGLE_UNIT ( ) SI_UNIT ( $, .RADIAN. ) );
#11 = CARTESIAN_POINT ( 'NONE',  ( 1.104999999999999800, -1.104999999999999800, 0.0000000000000000000 ) ) ;
#12 = DIRECTION ( 'NONE',  ( -1.000000000000000000, 0.0000000000000000000, 0.0000000000000000000 ) ) ;
#13 = DIRECTION ( 'NONE',  ( 3.491481338843133400E-015, 0.0000000000000000000, -1.000000000000000000 ) ) ;
#14 = ORIENTED_EDGE ( 'NONE', *, *, #89, .F. ) ;
#15 = ORIENTED_EDGE ( 'NONE', *, *, #39, .T. ) ;
#16 = DIRECTION ( 'NONE',  ( 3.491481338843133000E-015, 0.0000000000000000000, -1.000000000000000000 ) ) ;
#17 =( CONVERSION_BASED_UNIT ( 'INCH', #171 ) LENGTH_UNIT ( ) NAMED_UNIT ( #42 ) );
#18 = DIRECTION ( 'NONE',  ( -0.0000000000000000000, 1.000000000000000000, 0.0000000000000000000 ) ) ;
#19 = AXIS2_PLACEMENT_3D ( 'NONE', #149, #52, #97 ) ;
#20 = DIRECTION ( 'NONE',  ( -1.000000000000000000, 0.0000000000000000000, -3.491481338843133400E-015 ) ) ;
#21 = ORIENTED_EDGE ( 'NONE', *, *, #83, .T. ) ;
#22 = PRESENTATION_STYLE_ASSIGNMENT (( #103 ) ) ;
#23 = CIRCLE ( 'NONE', #67, 1.104999999999999800 ) ;
#24 = EDGE_LOOP ( 'NONE', ( #82, #51, #110, #133 ) ) ;
#25 = DIRECTION ( 'NONE',  ( 1.000000000000000000, 0.0000000000000000000, 0.0000000000000000000 ) ) ;
#26 = PRESENTATION_LAYER_ASSIGNMENT (  '', '', ( #184 ) ) ;
#27 = DIRECTION ( 'NONE',  ( 3.097460331484649700E-030, -1.000000000000000000, -8.871478982359279600E-016 ) ) ;
#28 = CARTESIAN_POINT ( 'NONE',  ( -2.362396873858069200E-031, -1.105000000000000000, 6.766173565289125700E-017 ) ) ;
#29 = EDGE_LOOP ( 'NONE', ( #147, #118, #131 ) ) ;
#30 = FILL_AREA_STYLE_COLOUR ( '', #156 ) ;
#31 = PLANE ( 'NONE',  #3 ) ;
#32 =( NAMED_UNIT ( * ) SI_UNIT ( $, .STERADIAN. ) SOLID_ANGLE_UNIT ( ) );
#33 =( CONVERSION_BASED_UNIT ( 'INCH', #153 ) LENGTH_UNIT ( ) NAMED_UNIT ( #69 ) );
#34 = AXIS2_PLACEMENT_3D ( 'NONE', #108, #162, #16 ) ;
#35 = DIRECTION ( 'NONE',  ( 0.0000000000000000000, 0.0000000000000000000, 1.000000000000000000 ) ) ;
#36 = EDGE_LOOP ( 'NONE', ( #21, #68, #143 ) ) ;
#37 = FACE_OUTER_BOUND ( 'NONE', #24, .T. ) ;
#38 = UNCERTAINTY_MEASURE_WITH_UNIT (LENGTH_MEASURE( 1.000000000000000100E-005 ), #17, 'distance_accuracy_value', 'NONE');
#39 = EDGE_CURVE ( 'NONE', #135, #98, #23, .T. ) ;
#40 = CIRCLE ( 'NONE', #129, 1.104999999999999800 ) ;
#41 =( NAMED_UNIT ( * ) PLANE_ANGLE_UNIT ( ) SI_UNIT ( $, .RADIAN. ) );
#42 = DIMENSIONAL_EXPONENTS ( 1.000000000000000000, 0.0000000000000000000, 0.0000000000000000000, 0.0000000000000000000, 0.0000000000000000000, 0.0000000000000000000, 0.0000000000000000000 ) ;
#43 = SURFACE_SIDE_STYLE ('',( #84 ) ) ;
#44 = VERTEX_POINT ( 'NONE', #49 ) ;
#45 = ADVANCED_FACE ( 'NONE', ( #102 ), #138, .T. ) ;
#46 = DIRECTION ( 'NONE',  ( 3.491481338843133400E-015, 0.0000000000000000000, -1.000000000000000000 ) ) ;
#47 = CARTESIAN_POINT ( 'NONE',  ( 0.0000000000000000000, -1.104999999999999800, 0.0000000000000000000 ) ) ;
#48 = PLANE ( 'NONE',  #34 ) ;
#49 = CARTESIAN_POINT ( 'NONE',  ( 3.252333348058881000E-031, -0.1049999999999999700, -9.315052931477240300E-017 ) ) ;
#50 = CIRCLE ( 'NONE', #134, 1.000000000000000000 ) ;
#51 = ORIENTED_EDGE ( 'NONE', *, *, #58, .T. ) ;
#52 = DIRECTION ( 'NONE',  ( -0.0000000000000000000, 1.000000000000000000, -0.0000000000000000000 ) ) ;
#53 = SPHERICAL_SURFACE ( 'NONE', #7, 1.000000000000000000 ) ;
#54 = PRODUCT_DEFINITION_FORMATION_WITH_SPECIFIED_SOURCE ( 'ANY', '', #172, .NOT_KNOWN. ) ;
#55 = EDGE_LOOP ( 'NONE', ( #15, #59, #178, #137 ) ) ;
#56 = FACE_OUTER_BOUND ( 'NONE', #36, .T. ) ;
#57 = FILL_AREA_STYLE ('',( #128 ) ) ;
#58 = EDGE_CURVE ( 'NONE', #64, #116, #123, .T. ) ;
#59 = ORIENTED_EDGE ( 'NONE', *, *, #89, .T. ) ;
#60 = ADVANCED_FACE ( 'NONE', ( #1 ), #73, .T. ) ;
#61 = DIRECTION ( 'NONE',  ( 0.0000000000000000000, 0.0000000000000000000, 1.000000000000000000 ) ) ;
#62 = CARTESIAN_POINT ( 'NONE',  ( 1.000000000000000000, -1.104999999999999800, 0.0000000000000000000 ) ) ;
#63 = CIRCLE ( 'NONE', #74, 1.000000000000000000 ) ;
#64 = VERTEX_POINT ( 'NONE', #181 ) ;
#65 = AXIS2_PLACEMENT_3D ( 'NONE', #167, #173, #80 ) ;
#66 = ORIENTED_EDGE ( 'NONE', *, *, #132, .F. ) ;
#67 = AXIS2_PLACEMENT_3D ( 'NONE', #28, #112, #161 ) ;
#68 = ORIENTED_EDGE ( 'NONE', *, *, #70, .F. ) ;
#69 = DIMENSIONAL_EXPONENTS ( 1.000000000000000000, 0.0000000000000000000, 0.0000000000000000000, 0.0000000000000000000, 0.0000000000000000000, 0.0000000000000000000, 0.0000000000000000000 ) ;
#70 = EDGE_CURVE ( 'NONE', #165, #64, #4, .T. ) ;
#71 = CARTESIAN_POINT ( 'NONE',  ( 0.0000000000000000000, 0.0000000000000000000, 0.0000000000000000000 ) ) ;
#72 = CARTESIAN_POINT ( 'NONE',  ( 6.766173565289125700E-017, -1.105000000000000000, 0.0000000000000000000 ) ) ;
#73 = PLANE ( 'NONE',  #65 ) ;
#74 = AXIS2_PLACEMENT_3D ( 'NONE', #163, #141, #12 ) ;
#75 = DIMENSIONAL_EXPONENTS ( 1.000000000000000000, 0.0000000000000000000, 0.0000000000000000000, 0.0000000000000000000, 0.0000000000000000000, 0.0000000000000000000, 0.0000000000000000000 ) ;
#76 = CARTESIAN_POINT ( 'NONE',  ( -3.491481338843133400E-015, -1.104999999999999800, 1.000000000000000000 ) ) ;
#77 = APPLICATION_PROTOCOL_DEFINITION ( 'draft international standard', 'automotive_design', 1998, #127 ) ;
#78 =( GEOMETRIC_REPRESENTATION_CONTEXT ( 3 ) GLOBAL_UNCERTAINTY_ASSIGNED_CONTEXT ( ( #160 ) ) GLOBAL_UNIT_ASSIGNED_CONTEXT ( ( #33, #113, #32 ) ) REPRESENTATION_CONTEXT ( 'NONE', 'WORKASPACE' ) );
#79 = DIRECTION ( 'NONE',  ( 1.000000000000000000, 0.0000000000000000000, 3.491481338843133000E-015 ) ) ;
#80 = DIRECTION ( 'NONE',  ( -1.000000000000000000, 0.0000000000000000000, 0.0000000000000000000 ) ) ;
#81 = CARTESIAN_POINT ( 'NONE',  ( -2.362396873858069200E-031, -1.105000000000000000, 6.766173565289125700E-017 ) ) ;
#82 = ORIENTED_EDGE ( 'NONE', *, *, #70, .T. ) ;
#83 = EDGE_CURVE ( 'NONE', #44, #64, #63, .T. ) ;
#84 = SURFACE_STYLE_FILL_AREA ( #105 ) ;
#85 = ADVANCED_BREP_SHAPE_REPRESENTATION ( '200507', ( #8, #150 ), #100 ) ;
#86 = SHAPE_DEFINITION_REPRESENTATION ( #164, #85 ) ;
#87 = CARTESIAN_POINT ( 'NONE',  ( -3.491481338843133400E-015, -1.104999999999999800, 1.000000000000000000 ) ) ;
#88 = UNCERTAINTY_MEASURE_WITH_UNIT (LENGTH_MEASURE( 1.000000000000000100E-005 ), #94, 'distance_accuracy_value', 'NONE');
#89 = EDGE_CURVE ( 'NONE', #98, #44, #117, .T. ) ;
#90 = ADVANCED_FACE ( 'NONE', ( #56 ), #53, .F. ) ;
#91 = LENGTH_MEASURE_WITH_UNIT ( LENGTH_MEASURE( 0.02539999999999999900 ), #183 );
#92 = DIRECTION ( 'NONE',  ( 1.000000000000000000, 0.0000000000000000000, 3.491481338843133400E-015 ) ) ;
#93 = PRESENTATION_STYLE_ASSIGNMENT (( #130 ) ) ;
#94 =( CONVERSION_BASED_UNIT ( 'INCH', #91 ) LENGTH_UNIT ( ) NAMED_UNIT ( #75 ) );
#95 = DIRECTION ( 'NONE',  ( 0.0000000000000000000, 0.0000000000000000000, 1.000000000000000000 ) ) ;
#96 = AXIS2_PLACEMENT_3D ( 'NONE', #72, #35, #169 ) ;
#97 = DIRECTION ( 'NONE',  ( 0.0000000000000000000, 0.0000000000000000000, 1.000000000000000000 ) ) ;
#98 = VERTEX_POINT ( 'NONE', #174 ) ;
#99 = CIRCLE ( 'NONE', #96, 1.104999999999999800 ) ;
#100 =( GEOMETRIC_REPRESENTATION_CONTEXT ( 3 ) GLOBAL_UNCERTAINTY_ASSIGNED_CONTEXT ( ( #88 ) ) GLOBAL_UNIT_ASSIGNED_CONTEXT ( ( #94, #10, #104 ) ) REPRESENTATION_CONTEXT ( 'NONE', 'WORKASPACE' ) );
#101 = COLOUR_RGB ( '',0.7764705882352941300, 0.7568627450980391900, 0.7372549019607843600 ) ;
#102 = FACE_OUTER_BOUND ( 'NONE', #29, .T. ) ;
#103 = SURFACE_STYLE_USAGE ( .BOTH. , #154 ) ;
#104 =( NAMED_UNIT ( * ) SI_UNIT ( $, .STERADIAN. ) SOLID_ANGLE_UNIT ( ) );
#105 = FILL_AREA_STYLE ('',( #30 ) ) ;
#106 = ADVANCED_FACE ( 'NONE', ( #37 ), #31, .F. ) ;
#107 = VECTOR ( 'NONE', #180, 39.37007874015748100 ) ;
#108 = CARTESIAN_POINT ( 'NONE',  ( -2.362396873858069200E-031, -1.105000000000000000, 6.766173565289125700E-017 ) ) ;
#109 = PRODUCT_CONTEXT ( 'NONE', #136, 'mechanical' ) ;
#110 = ORIENTED_EDGE ( 'NONE', *, *, #166, .F. ) ;
#111 = CARTESIAN_POINT ( 'NONE',  ( -3.491481338843133400E-015, -1.104999999999999800, 1.000000000000000000 ) ) ;
#112 = DIRECTION ( 'NONE',  ( -1.000000000000000000, 0.0000000000000000000, -3.491481338843133400E-015 ) ) ;
#113 =( NAMED_UNIT ( * ) PLANE_ANGLE_UNIT ( ) SI_UNIT ( $, .RADIAN. ) );
#114 = LINE ( 'NONE', #76, #107 ) ;
#115 = AXIS2_PLACEMENT_3D ( 'NONE', #81, #79, #170 ) ;
#116 = VERTEX_POINT ( 'NONE', #11 ) ;
#117 = LINE ( 'NONE', #2, #157 ) ;
#118 = ORIENTED_EDGE ( 'NONE', *, *, #132, .T. ) ;
#119 = APPLICATION_PROTOCOL_DEFINITION ( 'draft international standard', 'automotive_design', 1998, #136 ) ;
#120 =( LENGTH_UNIT ( ) NAMED_UNIT ( * ) SI_UNIT ( $, .METRE. ) );
#121 = FACE_OUTER_BOUND ( 'NONE', #55, .T. ) ;
#122 = CLOSED_SHELL ( 'NONE', ( #45, #106, #90, #168, #60 ) ) ;
#123 = LINE ( 'NONE', #62, #9 ) ;
#124 = DIRECTION ( 'NONE',  ( 1.000000000000000000, 0.0000000000000000000, 0.0000000000000000000 ) ) ;
#125 = STYLED_ITEM ( 'NONE', ( #22 ), #85 ) ;
#126 = EDGE_LOOP ( 'NONE', ( #66, #148, #152, #14 ) ) ;
#127 = APPLICATION_CONTEXT ( 'automotive_design' ) ;
#128 = FILL_AREA_STYLE_COLOUR ( '', #101 ) ;
#129 = AXIS2_PLACEMENT_3D ( 'NONE', #47, #144, #61 ) ;
#130 = SURFACE_STYLE_USAGE ( .BOTH. , #43 ) ;
#131 = ORIENTED_EDGE ( 'NONE', *, *, #39, .F. ) ;
#132 = EDGE_CURVE ( 'NONE', #116, #98, #99, .T. ) ;
#133 = ORIENTED_EDGE ( 'NONE', *, *, #5, .F. ) ;
#134 = AXIS2_PLACEMENT_3D ( 'NONE', #177, #92, #13 ) ;
#135 = VERTEX_POINT ( 'NONE', #145 ) ;
#136 = APPLICATION_CONTEXT ( 'automotive_design' ) ;
#137 = ORIENTED_EDGE ( 'NONE', *, *, #5, .T. ) ;
#138 = SPHERICAL_SURFACE ( 'NONE', #115, 1.104999999999999800 ) ;
#139 =( NAMED_UNIT ( * ) SI_UNIT ( $, .STERADIAN. ) SOLID_ANGLE_UNIT ( ) );
#140 = PRODUCT_DEFINITION ( 'UNKNOWN', '', #54, #175 ) ;
#141 = DIRECTION ( 'NONE',  ( -0.0000000000000000000, -0.0000000000000000000, -1.000000000000000000 ) ) ;
#142 =( LENGTH_UNIT ( ) NAMED_UNIT ( * ) SI_UNIT ( $, .METRE. ) );
#143 = ORIENTED_EDGE ( 'NONE', *, *, #151, .F. ) ;
#144 = DIRECTION ( 'NONE',  ( -0.0000000000000000000, 1.000000000000000000, -0.0000000000000000000 ) ) ;
#145 = CARTESIAN_POINT ( 'NONE',  ( -3.858086879421661700E-015, -1.104999999999999800, 1.104999999999999800 ) ) ;
#146 = MECHANICAL_DESIGN_GEOMETRIC_PRESENTATION_REPRESENTATION (  '', ( #125 ), #182 ) ;
#147 = ORIENTED_EDGE ( 'NONE', *, *, #166, .T. ) ;
#148 = ORIENTED_EDGE ( 'NONE', *, *, #58, .F. ) ;
#149 = CARTESIAN_POINT ( 'NONE',  ( 0.0000000000000000000, -1.104999999999999800, 0.0000000000000000000 ) ) ;
#150 = AXIS2_PLACEMENT_3D ( 'NONE', #71, #155, #25 ) ;
#151 = EDGE_CURVE ( 'NONE', #44, #165, #50, .T. ) ;
#152 = ORIENTED_EDGE ( 'NONE', *, *, #83, .F. ) ;
#153 = LENGTH_MEASURE_WITH_UNIT ( LENGTH_MEASURE( 0.02539999999999999900 ), #142 );
#154 = SURFACE_SIDE_STYLE ('',( #6 ) ) ;
#155 = DIRECTION ( 'NONE',  ( 0.0000000000000000000, 0.0000000000000000000, 1.000000000000000000 ) ) ;
#156 = COLOUR_RGB ( '',0.7764705882352941300, 0.7568627450980391900, 0.7372549019607843600 ) ;
#157 = VECTOR ( 'NONE', #27, 39.37007874015748100 ) ;
#158 = CARTESIAN_POINT ( 'NONE',  ( -2.362396873858069200E-031, -1.105000000000000000, 6.766173565289125700E-017 ) ) ;
#159 = PRESENTATION_LAYER_ASSIGNMENT (  '', '', ( #125 ) ) ;
#160 = UNCERTAINTY_MEASURE_WITH_UNIT (LENGTH_MEASURE( 1.000000000000000100E-005 ), #33, 'distance_accuracy_value', 'NONE');
#161 = DIRECTION ( 'NONE',  ( 3.491481338843133400E-015, 0.0000000000000000000, -1.000000000000000000 ) ) ;
#162 = DIRECTION ( 'NONE',  ( 1.000000000000000000, 0.0000000000000000000, 3.491481338843133000E-015 ) ) ;
#163 = CARTESIAN_POINT ( 'NONE',  ( 6.766173565289125700E-017, -1.105000000000000000, 0.0000000000000000000 ) ) ;
#164 = PRODUCT_DEFINITION_SHAPE ( 'NONE', 'NONE',  #140 ) ;
#165 = VERTEX_POINT ( 'NONE', #111 ) ;
#166 = EDGE_CURVE ( 'NONE', #135, #116, #40, .T. ) ;
#167 = CARTESIAN_POINT ( 'NONE',  ( 6.766173565289125700E-017, -1.105000000000000000, 0.0000000000000000000 ) ) ;
#168 = ADVANCED_FACE ( 'NONE', ( #121 ), #48, .F. ) ;
#169 = DIRECTION ( 'NONE',  ( -1.000000000000000000, 0.0000000000000000000, 0.0000000000000000000 ) ) ;
#170 = DIRECTION ( 'NONE',  ( -3.491481338843133000E-015, 0.0000000000000000000, 1.000000000000000000 ) ) ;
#171 = LENGTH_MEASURE_WITH_UNIT ( LENGTH_MEASURE( 0.02539999999999999900 ), #120 );
#172 = PRODUCT ( '200507', '200507', '', ( #109 ) ) ;
#173 = DIRECTION ( 'NONE',  ( -0.0000000000000000000, 0.0000000000000000000, -1.000000000000000000 ) ) ;
#174 = CARTESIAN_POINT ( 'NONE',  ( 0.0000000000000000000, 0.0000000000000000000, 0.0000000000000000000 ) ) ;
#175 = PRODUCT_DEFINITION_CONTEXT ( 'detailed design', #127, 'design' ) ;
#176 = PRODUCT_RELATED_PRODUCT_CATEGORY ( 'part', '', ( #172 ) ) ;
#177 = CARTESIAN_POINT ( 'NONE',  ( -2.362396873858069200E-031, -1.105000000000000000, 6.766173565289125700E-017 ) ) ;
#178 = ORIENTED_EDGE ( 'NONE', *, *, #151, .T. ) ;
#179 = MECHANICAL_DESIGN_GEOMETRIC_PRESENTATION_REPRESENTATION (  '', ( #184 ), #78 ) ;
#180 = DIRECTION ( 'NONE',  ( -3.491481338843133000E-015, 0.0000000000000000000, 1.000000000000000000 ) ) ;
#181 = CARTESIAN_POINT ( 'NONE',  ( 1.000000000000000000, -1.104999999999999800, 0.0000000000000000000 ) ) ;
#182 =( GEOMETRIC_REPRESENTATION_CONTEXT ( 3 ) GLOBAL_UNCERTAINTY_ASSIGNED_CONTEXT ( ( #38 ) ) GLOBAL_UNIT_ASSIGNED_CONTEXT ( ( #17, #41, #139 ) ) REPRESENTATION_CONTEXT ( 'NONE', 'WORKASPACE' ) );
#183 =( LENGTH_UNIT ( ) NAMED_UNIT ( * ) SI_UNIT ( $, .METRE. ) );
#184 = STYLED_ITEM ( 'NONE', ( #93 ), #8 ) ;
ENDSEC;
END-ISO-10303-21;
