ISO-10303-21;
HEADER;
FILE_DESCRIPTION (( 'STEP AP203' ),
    '1' );
FILE_NAME ('1in CORNER FILLER 14 Ga.STEP',
    '2016-12-23T01:11:49',
    ( 'temp' ),
    ( '' ),
    'SwSTEP 2.0',
    'SolidWorks 2016',
    '' );
FILE_SCHEMA (( 'CONFIG_CONTROL_DESIGN' ));
ENDSEC;

DATA;
#1 = DIRECTION ( 'NONE',  ( 3.491481338843133400E-015, 0.0000000000000000000, -1.000000000000000000 ) ) ;
#2 = CARTESIAN_POINT ( 'NONE',  ( 0.0000000000000000000, -1.075000000000000000, 0.0000000000000000000 ) ) ;
#3 = ORIENTED_EDGE ( 'NONE', *, *, #131, .T. ) ;
#4 = EDGE_LOOP ( 'NONE', ( #29, #3, #9, #28 ) ) ;
#5 = DIRECTION ( 'NONE',  ( -1.000000000000000000, 0.0000000000000000000, -3.491481338843133400E-015 ) ) ;
#6 = CC_DESIGN_PERSON_AND_ORGANIZATION_ASSIGNMENT ( #80, #56, ( #63 ) ) ;
#7 = DESIGN_CONTEXT ( 'detailed design', #57, 'design' ) ;
#8 = LENGTH_MEASURE_WITH_UNIT ( LENGTH_MEASURE( 0.02539999999999999900 ), #177 );
#9 = ORIENTED_EDGE ( 'NONE', *, *, #117, .F. ) ;
#10 = CIRCLE ( 'NONE', #66, 1.075000000000000000 ) ;
#11 = ORIENTED_EDGE ( 'NONE', *, *, #131, .F. ) ;
#12 = AXIS2_PLACEMENT_3D ( 'NONE', #110, #197, #159 ) ;
#13 = PRODUCT_DEFINITION_SHAPE ( 'NONE', 'NONE',  #92 ) ;
#14 =( CONVERSION_BASED_UNIT ( 'INCH', #8 ) LENGTH_UNIT ( ) NAMED_UNIT ( #81 ) );
#15 = VERTEX_POINT ( 'NONE', #149 ) ;
#16 = EDGE_LOOP ( 'NONE', ( #172, #23, #141, #207 ) ) ;
#17 = EDGE_CURVE ( 'NONE', #164, #94, #191, .T. ) ;
#18 = EDGE_LOOP ( 'NONE', ( #165, #55, #196 ) ) ;
#19 = CARTESIAN_POINT ( 'NONE',  ( 1.074999999999999500, -1.075000000000000000, 0.0000000000000000000 ) ) ;
#20 = DATE_TIME_ROLE ( 'classification_date' ) ;
#21 = PERSON_AND_ORGANIZATION_ROLE ( 'creator' ) ;
#22 = VECTOR ( 'NONE', #127, 39.37007874015748100 ) ;
#23 = ORIENTED_EDGE ( 'NONE', *, *, #32, .T. ) ;
#24 = CARTESIAN_POINT ( 'NONE',  ( -2.298259402169615100E-031, -1.075000000000000000, 6.582476545417024300E-017 ) ) ;
#25 = PLANE ( 'NONE',  #128 ) ;
#26 = ADVANCED_FACE ( 'NONE', ( #186 ), #60, .T. ) ;
#27 = DIRECTION ( 'NONE',  ( -1.000000000000000000, 0.0000000000000000000, 0.0000000000000000000 ) ) ;
#28 = ORIENTED_EDGE ( 'NONE', *, *, #53, .F. ) ;
#29 = ORIENTED_EDGE ( 'NONE', *, *, #17, .T. ) ;
#30 = PERSON_AND_ORGANIZATION ( #189, #97 ) ;
#31 = CIRCLE ( 'NONE', #83, 1.075000000000000000 ) ;
#32 = EDGE_CURVE ( 'NONE', #69, #15, #154, .T. ) ;
#33 = AXIS2_PLACEMENT_3D ( 'NONE', #115, #143, #27 ) ;
#34 = APPROVAL_PERSON_ORGANIZATION ( #211, #52, #212 ) ;
#35 = CALENDAR_DATE ( 2016, 22, 12 ) ;
#36 = EDGE_LOOP ( 'NONE', ( #135, #64, #46 ) ) ;
#37 = DIRECTION ( 'NONE',  ( -1.000000000000000000, 0.0000000000000000000, 0.0000000000000000000 ) ) ;
#38 = MANIFOLD_SOLID_BREP ( 'Revolve1', #178 ) ;
#39 = SECURITY_CLASSIFICATION_LEVEL ( 'unclassified' ) ;
#40 = APPROVAL_STATUS ( 'not_yet_approved' ) ;
#41 = CIRCLE ( 'NONE', #43, 1.000000000000000000 ) ;
#42 = DIRECTION ( 'NONE',  ( 0.0000000000000000000, 0.0000000000000000000, 1.000000000000000000 ) ) ;
#43 = AXIS2_PLACEMENT_3D ( 'NONE', #113, #200, #100 ) ;
#44 = UNCERTAINTY_MEASURE_WITH_UNIT (LENGTH_MEASURE( 1.000000000000000100E-005 ), #14, 'distance_accuracy_value', 'NONE');
#45 = LOCAL_TIME ( 17, 11, 49.00000000000000000, #93 ) ;
#46 = ORIENTED_EDGE ( 'NONE', *, *, #155, .F. ) ;
#47 = CARTESIAN_POINT ( 'NONE',  ( -2.298259402169615100E-031, -1.075000000000000000, 6.582476545417024300E-017 ) ) ;
#48 = DIRECTION ( 'NONE',  ( -0.0000000000000000000, 1.000000000000000000, -0.0000000000000000000 ) ) ;
#49 = AXIS2_PLACEMENT_3D ( 'NONE', #107, #134, #77 ) ;
#50 = PERSON_AND_ORGANIZATION ( #189, #97 ) ;
#51 = LOCAL_TIME ( 17, 11, 49.00000000000000000, #171 ) ;
#52 = APPROVAL ( #123, 'UNSPECIFIED' ) ;
#53 = EDGE_CURVE ( 'NONE', #164, #90, #109, .T. ) ;
#54 = AXIS2_PLACEMENT_3D ( 'NONE', #24, #85, #1 ) ;
#55 = ORIENTED_EDGE ( 'NONE', *, *, #17, .F. ) ;
#56 = PERSON_AND_ORGANIZATION_ROLE ( 'design_supplier' ) ;
#57 = APPLICATION_CONTEXT ( 'configuration controlled 3d designs of mechanical parts and assemblies' ) ;
#58 = CARTESIAN_POINT ( 'NONE',  ( 0.0000000000000000000, -1.075000000000000000, 0.0000000000000000000 ) ) ;
#59 = DIRECTION ( 'NONE',  ( 1.000000000000000000, 0.0000000000000000000, 0.0000000000000000000 ) ) ;
#60 = PLANE ( 'NONE',  #33 ) ;
#61 = CARTESIAN_POINT ( 'NONE',  ( -3.753342439256366800E-015, -1.075000000000000000, 1.074999999999999500 ) ) ;
#62 = VECTOR ( 'NONE', #202, 39.37007874015748100 ) ;
#63 = PRODUCT_DEFINITION_FORMATION_WITH_SPECIFIED_SOURCE ( 'ANY', '', #158, .NOT_KNOWN. ) ;
#64 = ORIENTED_EDGE ( 'NONE', *, *, #153, .T. ) ;
#65 = DATE_AND_TIME ( #192, #68 ) ;
#66 = AXIS2_PLACEMENT_3D ( 'NONE', #47, #5, #124 ) ;
#67 = APPROVAL_DATE_TIME ( #132, #136 ) ;
#68 = LOCAL_TIME ( 17, 11, 49.00000000000000000, #174 ) ;
#69 = VERTEX_POINT ( 'NONE', #151 ) ;
#70 = AXIS2_PLACEMENT_3D ( 'NONE', #58, #148, #42 ) ;
#71 = EDGE_LOOP ( 'NONE', ( #91, #11, #183, #169 ) ) ;
#72 = CARTESIAN_POINT ( 'NONE',  ( -3.491481338843133400E-015, -1.075000000000000000, 1.000000000000000000 ) ) ;
#73 = APPROVAL_ROLE ( '' ) ;
#74 = MECHANICAL_CONTEXT ( 'NONE', #99, 'mechanical' ) ;
#75 = FACE_OUTER_BOUND ( 'NONE', #4, .T. ) ;
#76 = SECURITY_CLASSIFICATION ( '', '', #39 ) ;
#77 = DIRECTION ( 'NONE',  ( 1.000000000000000000, 0.0000000000000000000, 0.0000000000000000000 ) ) ;
#78 = CARTESIAN_POINT ( 'NONE',  ( 1.000000000000000000, -1.075000000000000000, 0.0000000000000000000 ) ) ;
#79 = CALENDAR_DATE ( 2016, 22, 12 ) ;
#80 = PERSON_AND_ORGANIZATION ( #189, #97 ) ;
#81 = DIMENSIONAL_EXPONENTS ( 1.000000000000000000, 0.0000000000000000000, 0.0000000000000000000, 0.0000000000000000000, 0.0000000000000000000, 0.0000000000000000000, 0.0000000000000000000 ) ;
#82 = PRODUCT_RELATED_PRODUCT_CATEGORY ( 'detail', '', ( #158 ) ) ;
#83 = AXIS2_PLACEMENT_3D ( 'NONE', #181, #95, #37 ) ;
#84 = ADVANCED_BREP_SHAPE_REPRESENTATION ( '1in CORNER FILLER 14 Ga', ( #38, #49 ), #87 ) ;
#85 = DIRECTION ( 'NONE',  ( 1.000000000000000000, 0.0000000000000000000, 3.491481338843133400E-015 ) ) ;
#86 = SPHERICAL_SURFACE ( 'NONE', #12, 1.075000000000000000 ) ;
#87 =( GEOMETRIC_REPRESENTATION_CONTEXT ( 3 ) GLOBAL_UNCERTAINTY_ASSIGNED_CONTEXT ( ( #44 ) ) GLOBAL_UNIT_ASSIGNED_CONTEXT ( ( #14, #188, #125 ) ) REPRESENTATION_CONTEXT ( 'NONE', 'WORKASPACE' ) );
#88 = APPROVAL_PERSON_ORGANIZATION ( #126, #201, #73 ) ;
#89 = APPROVAL_PERSON_ORGANIZATION ( #50, #136, #138 ) ;
#90 = VERTEX_POINT ( 'NONE', #61 ) ;
#91 = ORIENTED_EDGE ( 'NONE', *, *, #153, .F. ) ;
#92 = PRODUCT_DEFINITION ( 'UNKNOWN', '', #63, #7 ) ;
#93 = COORDINATED_UNIVERSAL_TIME_OFFSET ( 8, 0, .BEHIND. ) ;
#94 = VERTEX_POINT ( 'NONE', #78 ) ;
#95 = DIRECTION ( 'NONE',  ( 0.0000000000000000000, 0.0000000000000000000, 1.000000000000000000 ) ) ;
#96 = AXIS2_PLACEMENT_3D ( 'NONE', #150, #168, #112 ) ;
#97 = ORGANIZATION ( 'UNSPECIFIED', 'UNSPECIFIED', '' ) ;
#98 = APPROVAL_STATUS ( 'not_yet_approved' ) ;
#99 = APPLICATION_CONTEXT ( 'configuration controlled 3d designs of mechanical parts and assemblies' ) ;
#100 = DIRECTION ( 'NONE',  ( -1.000000000000000000, 0.0000000000000000000, 0.0000000000000000000 ) ) ;
#101 = CARTESIAN_POINT ( 'NONE',  ( -3.491481338843133400E-015, -1.075000000000000000, 1.000000000000000000 ) ) ;
#102 = EDGE_CURVE ( 'NONE', #15, #94, #41, .T. ) ;
#103 = ADVANCED_FACE ( 'NONE', ( #106 ), #25, .F. ) ;
#104 = CIRCLE ( 'NONE', #54, 1.000000000000000000 ) ;
#105 = EDGE_CURVE ( 'NONE', #15, #164, #104, .T. ) ;
#106 = FACE_OUTER_BOUND ( 'NONE', #16, .T. ) ;
#107 = CARTESIAN_POINT ( 'NONE',  ( 0.0000000000000000000, 0.0000000000000000000, 0.0000000000000000000 ) ) ;
#108 = AXIS2_PLACEMENT_3D ( 'NONE', #2, #48, #152 ) ;
#109 = LINE ( 'NONE', #101, #62 ) ;
#110 = CARTESIAN_POINT ( 'NONE',  ( -2.298259402169615100E-031, -1.075000000000000000, 6.582476545417024300E-017 ) ) ;
#111 = PLANE ( 'NONE',  #119 ) ;
#112 = DIRECTION ( 'NONE',  ( 3.491481338843133400E-015, 0.0000000000000000000, -1.000000000000000000 ) ) ;
#113 = CARTESIAN_POINT ( 'NONE',  ( 6.582476545417024300E-017, -1.075000000000000000, 0.0000000000000000000 ) ) ;
#114 = CARTESIAN_POINT ( 'NONE',  ( 0.0000000000000000000, 0.0000000000000000000, 0.0000000000000000000 ) ) ;
#115 = CARTESIAN_POINT ( 'NONE',  ( 6.582476545417024300E-017, -1.075000000000000000, 0.0000000000000000000 ) ) ;
#116 = ADVANCED_FACE ( 'NONE', ( #144 ), #209, .F. ) ;
#117 = EDGE_CURVE ( 'NONE', #90, #176, #175, .T. ) ;
#118 = VECTOR ( 'NONE', #59, 39.37007874015748100 ) ;
#119 = AXIS2_PLACEMENT_3D ( 'NONE', #72, #179, #146 ) ;
#120 = DATE_AND_TIME ( #79, #156 ) ;
#121 = CC_DESIGN_APPROVAL ( #136, ( #92 ) ) ;
#122 = PERSON_AND_ORGANIZATION ( #189, #97 ) ;
#123 = APPROVAL_STATUS ( 'not_yet_approved' ) ;
#124 = DIRECTION ( 'NONE',  ( 3.491481338843133400E-015, 0.0000000000000000000, -1.000000000000000000 ) ) ;
#125 =( NAMED_UNIT ( * ) SI_UNIT ( $, .STERADIAN. ) SOLID_ANGLE_UNIT ( ) );
#126 = PERSON_AND_ORGANIZATION ( #189, #97 ) ;
#127 = DIRECTION ( 'NONE',  ( 4.421961092996446000E-030, -1.000000000000000000, -1.266499993513245500E-015 ) ) ;
#128 = AXIS2_PLACEMENT_3D ( 'NONE', #142, #184, #187 ) ;
#129 = APPROVAL_DATE_TIME ( #203, #201 ) ;
#130 = LINE ( 'NONE', #167, #118 ) ;
#131 = EDGE_CURVE ( 'NONE', #94, #176, #130, .T. ) ;
#132 = DATE_AND_TIME ( #170, #51 ) ;
#133 = SHAPE_DEFINITION_REPRESENTATION ( #13, #84 ) ;
#134 = DIRECTION ( 'NONE',  ( 0.0000000000000000000, 0.0000000000000000000, 1.000000000000000000 ) ) ;
#135 = ORIENTED_EDGE ( 'NONE', *, *, #117, .T. ) ;
#136 = APPROVAL ( #40, 'UNSPECIFIED' ) ;
#137 = PERSON_AND_ORGANIZATION_ROLE ( 'classification_officer' ) ;
#138 = APPROVAL_ROLE ( '' ) ;
#139 = CARTESIAN_POINT ( 'NONE',  ( -3.491481338843133400E-015, -1.075000000000000000, 1.000000000000000000 ) ) ;
#140 = CC_DESIGN_PERSON_AND_ORGANIZATION_ASSIGNMENT ( #210, #21, ( #92 ) ) ;
#141 = ORIENTED_EDGE ( 'NONE', *, *, #105, .T. ) ;
#142 = CARTESIAN_POINT ( 'NONE',  ( -2.298259402169615100E-031, -1.075000000000000000, 6.582476545417024300E-017 ) ) ;
#143 = DIRECTION ( 'NONE',  ( -0.0000000000000000000, 0.0000000000000000000, -1.000000000000000000 ) ) ;
#144 = FACE_OUTER_BOUND ( 'NONE', #18, .T. ) ;
#145 = CC_DESIGN_SECURITY_CLASSIFICATION ( #76, ( #63 ) ) ;
#146 = DIRECTION ( 'NONE',  ( 0.0000000000000000000, 0.0000000000000000000, 1.000000000000000000 ) ) ;
#147 = APPLICATION_PROTOCOL_DEFINITION ( 'international standard', 'config_control_design', 1994, #57 ) ;
#148 = DIRECTION ( 'NONE',  ( -0.0000000000000000000, 1.000000000000000000, -0.0000000000000000000 ) ) ;
#149 = CARTESIAN_POINT ( 'NONE',  ( 3.316470819747335200E-031, -0.07500000000000002500, -9.498749951349342900E-017 ) ) ;
#150 = CARTESIAN_POINT ( 'NONE',  ( -2.298259402169615100E-031, -1.075000000000000000, 6.582476545417024300E-017 ) ) ;
#151 = CARTESIAN_POINT ( 'NONE',  ( 0.0000000000000000000, 0.0000000000000000000, 0.0000000000000000000 ) ) ;
#152 = DIRECTION ( 'NONE',  ( 0.0000000000000000000, 0.0000000000000000000, 1.000000000000000000 ) ) ;
#153 = EDGE_CURVE ( 'NONE', #176, #69, #31, .T. ) ;
#154 = LINE ( 'NONE', #114, #22 ) ;
#155 = EDGE_CURVE ( 'NONE', #90, #69, #10, .T. ) ;
#156 = LOCAL_TIME ( 17, 11, 49.00000000000000000, #160 ) ;
#157 = COORDINATED_UNIVERSAL_TIME_OFFSET ( 8, 0, .BEHIND. ) ;
#158 = PRODUCT ( '1in CORNER FILLER 14 Ga', '1in CORNER FILLER 14 Ga', '', ( #74 ) ) ;
#159 = DIRECTION ( 'NONE',  ( -3.491481338843133400E-015, 0.0000000000000000000, 1.000000000000000000 ) ) ;
#160 = COORDINATED_UNIVERSAL_TIME_OFFSET ( 8, 0, .BEHIND. ) ;
#161 = DATE_AND_TIME ( #205, #45 ) ;
#162 = PERSON_AND_ORGANIZATION ( #189, #97 ) ;
#163 = PERSON_AND_ORGANIZATION_ROLE ( 'creator' ) ;
#164 = VERTEX_POINT ( 'NONE', #139 ) ;
#165 = ORIENTED_EDGE ( 'NONE', *, *, #102, .T. ) ;
#166 = PERSON_AND_ORGANIZATION_ROLE ( 'design_owner' ) ;
#167 = CARTESIAN_POINT ( 'NONE',  ( 1.000000000000000000, -1.075000000000000000, 0.0000000000000000000 ) ) ;
#168 = DIRECTION ( 'NONE',  ( -1.000000000000000000, 0.0000000000000000000, -3.491481338843133400E-015 ) ) ;
#169 = ORIENTED_EDGE ( 'NONE', *, *, #32, .F. ) ;
#170 = CALENDAR_DATE ( 2016, 22, 12 ) ;
#171 = COORDINATED_UNIVERSAL_TIME_OFFSET ( 8, 0, .BEHIND. ) ;
#172 = ORIENTED_EDGE ( 'NONE', *, *, #155, .T. ) ;
#173 = CC_DESIGN_APPROVAL ( #201, ( #63 ) ) ;
#174 = COORDINATED_UNIVERSAL_TIME_OFFSET ( 8, 0, .BEHIND. ) ;
#175 = CIRCLE ( 'NONE', #70, 1.074999999999999500 ) ;
#176 = VERTEX_POINT ( 'NONE', #19 ) ;
#177 =( LENGTH_UNIT ( ) NAMED_UNIT ( * ) SI_UNIT ( $, .METRE. ) );
#178 = CLOSED_SHELL ( 'NONE', ( #193, #180, #116, #103, #26 ) ) ;
#179 = DIRECTION ( 'NONE',  ( -0.0000000000000000000, 1.000000000000000000, 0.0000000000000000000 ) ) ;
#180 = ADVANCED_FACE ( 'NONE', ( #75 ), #111, .F. ) ;
#181 = CARTESIAN_POINT ( 'NONE',  ( 6.582476545417024300E-017, -1.075000000000000000, 0.0000000000000000000 ) ) ;
#182 = FACE_OUTER_BOUND ( 'NONE', #36, .T. ) ;
#183 = ORIENTED_EDGE ( 'NONE', *, *, #102, .F. ) ;
#184 = DIRECTION ( 'NONE',  ( 1.000000000000000000, 0.0000000000000000000, 3.491481338843133000E-015 ) ) ;
#185 = CC_DESIGN_PERSON_AND_ORGANIZATION_ASSIGNMENT ( #162, #166, ( #158 ) ) ;
#186 = FACE_OUTER_BOUND ( 'NONE', #71, .T. ) ;
#187 = DIRECTION ( 'NONE',  ( 3.491481338843133000E-015, 0.0000000000000000000, -1.000000000000000000 ) ) ;
#188 =( NAMED_UNIT ( * ) PLANE_ANGLE_UNIT ( ) SI_UNIT ( $, .RADIAN. ) );
#189 = PERSON ( 'UNSPECIFIED', 'UNSPECIFIED', 'UNSPECIFIED', ('UNSPECIFIED'), ('UNSPECIFIED'), ('UNSPECIFIED') ) ;
#190 = CC_DESIGN_PERSON_AND_ORGANIZATION_ASSIGNMENT ( #30, #137, ( #76 ) ) ;
#191 = CIRCLE ( 'NONE', #108, 1.000000000000000000 ) ;
#192 = CALENDAR_DATE ( 2016, 22, 12 ) ;
#193 = ADVANCED_FACE ( 'NONE', ( #182 ), #86, .T. ) ;
#194 = APPROVAL_DATE_TIME ( #120, #52 ) ;
#195 = CC_DESIGN_DATE_AND_TIME_ASSIGNMENT ( #65, #20, ( #76 ) ) ;
#196 = ORIENTED_EDGE ( 'NONE', *, *, #105, .F. ) ;
#197 = DIRECTION ( 'NONE',  ( 1.000000000000000000, 0.0000000000000000000, 3.491481338843133400E-015 ) ) ;
#198 = APPLICATION_PROTOCOL_DEFINITION ( 'international standard', 'config_control_design', 1994, #99 ) ;
#199 = CC_DESIGN_APPROVAL ( #52, ( #76 ) ) ;
#200 = DIRECTION ( 'NONE',  ( -0.0000000000000000000, -0.0000000000000000000, -1.000000000000000000 ) ) ;
#201 = APPROVAL ( #98, 'UNSPECIFIED' ) ;
#202 = DIRECTION ( 'NONE',  ( -3.491481338843133000E-015, 0.0000000000000000000, 1.000000000000000000 ) ) ;
#203 = DATE_AND_TIME ( #35, #204 ) ;
#204 = LOCAL_TIME ( 17, 11, 49.00000000000000000, #157 ) ;
#205 = CALENDAR_DATE ( 2016, 22, 12 ) ;
#206 = CC_DESIGN_DATE_AND_TIME_ASSIGNMENT ( #161, #213, ( #92 ) ) ;
#207 = ORIENTED_EDGE ( 'NONE', *, *, #53, .T. ) ;
#208 = CC_DESIGN_PERSON_AND_ORGANIZATION_ASSIGNMENT ( #122, #163, ( #63 ) ) ;
#209 = SPHERICAL_SURFACE ( 'NONE', #96, 1.000000000000000000 ) ;
#210 = PERSON_AND_ORGANIZATION ( #189, #97 ) ;
#211 = PERSON_AND_ORGANIZATION ( #189, #97 ) ;
#212 = APPROVAL_ROLE ( '' ) ;
#213 = DATE_TIME_ROLE ( 'creation_date' ) ;
ENDSEC;
END-ISO-10303-21;
