ISO-10303-21;
HEADER;
FILE_DESCRIPTION (( 'STEP AP203' ),
    '1' );
FILE_NAME ('1in CORNER FILLER 18 Ga.STEP',
    '2016-12-23T01:13:49',
    ( 'temp' ),
    ( '' ),
    'SwSTEP 2.0',
    'SolidWorks 2016',
    '' );
FILE_SCHEMA (( 'CONFIG_CONTROL_DESIGN' ));
ENDSEC;

DATA;
#1 = PERSON_AND_ORGANIZATION ( #155, #37 ) ;
#2 = DIRECTION ( 'NONE',  ( 1.000000000000000000, 0.0000000000000000000, 3.491481338843133400E-015 ) ) ;
#3 = AXIS2_PLACEMENT_3D ( 'NONE', #196, #110, #129 ) ;
#4 = APPROVAL_DATE_TIME ( #141, #189 ) ;
#5 = AXIS2_PLACEMENT_3D ( 'NONE', #52, #2, #124 ) ;
#6 = DIRECTION ( 'NONE',  ( 1.000000000000000000, 0.0000000000000000000, 0.0000000000000000000 ) ) ;
#7 = EDGE_LOOP ( 'NONE', ( #191, #64, #166, #33 ) ) ;
#8 = VERTEX_POINT ( 'NONE', #132 ) ;
#9 = CALENDAR_DATE ( 2016, 22, 12 ) ;
#10 = CARTESIAN_POINT ( 'NONE',  ( 6.411025993536394000E-017, -1.047000000000000200, 0.0000000000000000000 ) ) ;
#11 = CARTESIAN_POINT ( 'NONE',  ( 0.0000000000000000000, 0.0000000000000000000, 0.0000000000000000000 ) ) ;
#12 = AXIS2_PLACEMENT_3D ( 'NONE', #210, #179, #6 ) ;
#13 = ORIENTED_EDGE ( 'NONE', *, *, #39, .F. ) ;
#14 = COORDINATED_UNIVERSAL_TIME_OFFSET ( 8, 0, .BEHIND. ) ;
#15 = CARTESIAN_POINT ( 'NONE',  ( 1.000000000000000000, -1.046999999999999900, 0.0000000000000000000 ) ) ;
#16 = CC_DESIGN_PERSON_AND_ORGANIZATION_ASSIGNMENT ( #114, #44, ( #71 ) ) ;
#17 = EDGE_LOOP ( 'NONE', ( #74, #162, #51, #13 ) ) ;
#18 = VECTOR ( 'NONE', #192, 39.37007874015748100 ) ;
#19 = APPROVAL_PERSON_ORGANIZATION ( #62, #197, #26 ) ;
#20 = PRODUCT ( '1in CORNER FILLER 18 Ga', '1in CORNER FILLER 18 Ga', '', ( #99 ) ) ;
#21 = DIRECTION ( 'NONE',  ( -1.000000000000000000, 0.0000000000000000000, 0.0000000000000000000 ) ) ;
#22 = APPLICATION_CONTEXT ( 'configuration controlled 3d designs of mechanical parts and assemblies' ) ;
#23 = LINE ( 'NONE', #101, #27 ) ;
#24 = FACE_OUTER_BOUND ( 'NONE', #178, .T. ) ;
#25 = PRODUCT_DEFINITION_FORMATION_WITH_SPECIFIED_SOURCE ( 'ANY', '', #20, .NOT_KNOWN. ) ;
#26 = APPROVAL_ROLE ( '' ) ;
#27 = VECTOR ( 'NONE', #158, 39.37007874015748100 ) ;
#28 = PLANE ( 'NONE',  #3 ) ;
#29 = DATE_TIME_ROLE ( 'creation_date' ) ;
#30 = LINE ( 'NONE', #11, #169 ) ;
#31 = CALENDAR_DATE ( 2016, 22, 12 ) ;
#32 = DIRECTION ( 'NONE',  ( -1.000000000000000000, 0.0000000000000000000, -3.491481338843133400E-015 ) ) ;
#33 = ORIENTED_EDGE ( 'NONE', *, *, #39, .T. ) ;
#34 = APPLICATION_CONTEXT ( 'configuration controlled 3d designs of mechanical parts and assemblies' ) ;
#35 = ORIENTED_EDGE ( 'NONE', *, *, #56, .F. ) ;
#36 = PERSON_AND_ORGANIZATION ( #155, #37 ) ;
#37 = ORGANIZATION ( 'UNSPECIFIED', 'UNSPECIFIED', '' ) ;
#38 = APPLICATION_PROTOCOL_DEFINITION ( 'international standard', 'config_control_design', 1994, #34 ) ;
#39 = EDGE_CURVE ( 'NONE', #40, #206, #23, .T. ) ;
#40 = VERTEX_POINT ( 'NONE', #150 ) ;
#41 = CARTESIAN_POINT ( 'NONE',  ( -2.238397761927058100E-031, -1.047000000000000200, 6.411025993536394000E-017 ) ) ;
#42 = CC_DESIGN_SECURITY_CLASSIFICATION ( #71, ( #25 ) ) ;
#43 = DATE_AND_TIME ( #31, #175 ) ;
#44 = PERSON_AND_ORGANIZATION_ROLE ( 'classification_officer' ) ;
#45 = DIRECTION ( 'NONE',  ( 3.491481338843133400E-015, 0.0000000000000000000, -1.000000000000000000 ) ) ;
#46 = APPROVAL_STATUS ( 'not_yet_approved' ) ;
#47 = CC_DESIGN_PERSON_AND_ORGANIZATION_ASSIGNMENT ( #79, #48, ( #25 ) ) ;
#48 = PERSON_AND_ORGANIZATION_ROLE ( 'design_supplier' ) ;
#49 = FACE_OUTER_BOUND ( 'NONE', #50, .T. ) ;
#50 = EDGE_LOOP ( 'NONE', ( #146, #117, #68 ) ) ;
#51 = ORIENTED_EDGE ( 'NONE', *, *, #85, .F. ) ;
#52 = CARTESIAN_POINT ( 'NONE',  ( -2.238397761927058100E-031, -1.047000000000000200, 6.411025993536394000E-017 ) ) ;
#53 = FACE_OUTER_BOUND ( 'NONE', #7, .T. ) ;
#54 = DIRECTION ( 'NONE',  ( -0.0000000000000000000, 0.0000000000000000000, -1.000000000000000000 ) ) ;
#55 = CARTESIAN_POINT ( 'NONE',  ( 6.411025993536394000E-017, -1.047000000000000200, 0.0000000000000000000 ) ) ;
#56 = EDGE_CURVE ( 'NONE', #8, #123, #30, .T. ) ;
#57 = ADVANCED_FACE ( 'NONE', ( #49 ), #170, .F. ) ;
#58 = LOCAL_TIME ( 17, 13, 49.00000000000000000, #130 ) ;
#59 = AXIS2_PLACEMENT_3D ( 'NONE', #115, #54, #88 ) ;
#60 = ORIENTED_EDGE ( 'NONE', *, *, #85, .T. ) ;
#61 = DIRECTION ( 'NONE',  ( 0.0000000000000000000, 0.0000000000000000000, 1.000000000000000000 ) ) ;
#62 = PERSON_AND_ORGANIZATION ( #155, #37 ) ;
#63 = DIRECTION ( 'NONE',  ( -0.0000000000000000000, 1.000000000000000000, -0.0000000000000000000 ) ) ;
#64 = ORIENTED_EDGE ( 'NONE', *, *, #56, .T. ) ;
#65 = ORIENTED_EDGE ( 'NONE', *, *, #199, .F. ) ;
#66 = CC_DESIGN_APPROVAL ( #197, ( #82 ) ) ;
#67 = APPROVAL_ROLE ( '' ) ;
#68 = ORIENTED_EDGE ( 'NONE', *, *, #139, .F. ) ;
#69 = CC_DESIGN_PERSON_AND_ORGANIZATION_ASSIGNMENT ( #36, #161, ( #82 ) ) ;
#70 = DATE_AND_TIME ( #83, #198 ) ;
#71 = SECURITY_CLASSIFICATION ( '', '', #184 ) ;
#72 = DIRECTION ( 'NONE',  ( -1.000000000000000000, 0.0000000000000000000, 0.0000000000000000000 ) ) ;
#73 = CALENDAR_DATE ( 2016, 22, 12 ) ;
#74 = ORIENTED_EDGE ( 'NONE', *, *, #148, .T. ) ;
#75 = AXIS2_PLACEMENT_3D ( 'NONE', #55, #61, #21 ) ;
#76 = DIRECTION ( 'NONE',  ( 3.491481338843133400E-015, 0.0000000000000000000, -1.000000000000000000 ) ) ;
#77 = APPROVAL_STATUS ( 'not_yet_approved' ) ;
#78 = DIRECTION ( 'NONE',  ( -0.0000000000000000000, -0.0000000000000000000, -1.000000000000000000 ) ) ;
#79 = PERSON_AND_ORGANIZATION ( #155, #37 ) ;
#80 = ADVANCED_FACE ( 'NONE', ( #98 ), #28, .F. ) ;
#81 = PLANE ( 'NONE',  #59 ) ;
#82 = PRODUCT_DEFINITION ( 'UNKNOWN', '', #25, #140 ) ;
#83 = CALENDAR_DATE ( 2016, 22, 12 ) ;
#84 = DIRECTION ( 'NONE',  ( 3.491481338843133400E-015, 0.0000000000000000000, -1.000000000000000000 ) ) ;
#85 = EDGE_CURVE ( 'NONE', #206, #186, #97, .T. ) ;
#86 = ADVANCED_BREP_SHAPE_REPRESENTATION ( '1in CORNER FILLER 18 Ga', ( #137, #12 ), #159 ) ;
#87 = CARTESIAN_POINT ( 'NONE',  ( 0.0000000000000000000, -1.046999999999999900, 0.0000000000000000000 ) ) ;
#88 = DIRECTION ( 'NONE',  ( -1.000000000000000000, 0.0000000000000000000, 0.0000000000000000000 ) ) ;
#89 = CIRCLE ( 'NONE', #133, 1.000000000000000000 ) ;
#90 = LOCAL_TIME ( 17, 13, 49.00000000000000000, #143 ) ;
#91 = COORDINATED_UNIVERSAL_TIME_OFFSET ( 8, 0, .BEHIND. ) ;
#92 = CALENDAR_DATE ( 2016, 22, 12 ) ;
#93 = CLOSED_SHELL ( 'NONE', ( #202, #80, #57, #200, #138 ) ) ;
#94 = DIRECTION ( 'NONE',  ( 1.000000000000000000, 0.0000000000000000000, 3.491481338843133000E-015 ) ) ;
#95 = VERTEX_POINT ( 'NONE', #194 ) ;
#96 = CC_DESIGN_PERSON_AND_ORGANIZATION_ASSIGNMENT ( #1, #108, ( #25 ) ) ;
#97 = CIRCLE ( 'NONE', #127, 1.047000000000000200 ) ;
#98 = FACE_OUTER_BOUND ( 'NONE', #17, .T. ) ;
#99 = MECHANICAL_CONTEXT ( 'NONE', #22, 'mechanical' ) ;
#100 = CARTESIAN_POINT ( 'NONE',  ( -2.238397761927058100E-031, -1.047000000000000200, 6.411025993536394000E-017 ) ) ;
#101 = CARTESIAN_POINT ( 'NONE',  ( -3.491481338843133400E-015, -1.046999999999999900, 1.000000000000000000 ) ) ;
#102 = DIMENSIONAL_EXPONENTS ( 1.000000000000000000, 0.0000000000000000000, 0.0000000000000000000, 0.0000000000000000000, 0.0000000000000000000, 0.0000000000000000000, 0.0000000000000000000 ) ;
#103 = APPROVAL_PERSON_ORGANIZATION ( #164, #107, #168 ) ;
#104 = APPROVAL_DATE_TIME ( #205, #107 ) ;
#105 = AXIS2_PLACEMENT_3D ( 'NONE', #100, #32, #84 ) ;
#106 = COORDINATED_UNIVERSAL_TIME_OFFSET ( 8, 0, .BEHIND. ) ;
#107 = APPROVAL ( #46, 'UNSPECIFIED' ) ;
#108 = PERSON_AND_ORGANIZATION_ROLE ( 'creator' ) ;
#109 =( NAMED_UNIT ( * ) PLANE_ANGLE_UNIT ( ) SI_UNIT ( $, .RADIAN. ) );
#110 = DIRECTION ( 'NONE',  ( -0.0000000000000000000, 1.000000000000000000, 0.0000000000000000000 ) ) ;
#111 = ORIENTED_EDGE ( 'NONE', *, *, #199, .T. ) ;
#112 = DIRECTION ( 'NONE',  ( -0.0000000000000000000, 1.000000000000000000, -0.0000000000000000000 ) ) ;
#113 = CC_DESIGN_PERSON_AND_ORGANIZATION_ASSIGNMENT ( #116, #207, ( #20 ) ) ;
#114 = PERSON_AND_ORGANIZATION ( #155, #37 ) ;
#115 = CARTESIAN_POINT ( 'NONE',  ( 6.411025993536394000E-017, -1.047000000000000200, 0.0000000000000000000 ) ) ;
#116 = PERSON_AND_ORGANIZATION ( #155, #37 ) ;
#117 = ORIENTED_EDGE ( 'NONE', *, *, #148, .F. ) ;
#118 = APPROVAL_STATUS ( 'not_yet_approved' ) ;
#119 = AXIS2_PLACEMENT_3D ( 'NONE', #128, #144, #45 ) ;
#120 = ORIENTED_EDGE ( 'NONE', *, *, #122, .F. ) ;
#121 = CARTESIAN_POINT ( 'NONE',  ( 3.376332459989892200E-031, -0.04700000000000006900, -9.670200503229970800E-017 ) ) ;
#122 = EDGE_CURVE ( 'NONE', #95, #186, #163, .T. ) ;
#123 = VERTEX_POINT ( 'NONE', #121 ) ;
#124 = DIRECTION ( 'NONE',  ( -3.491481338843133400E-015, 0.0000000000000000000, 1.000000000000000000 ) ) ;
#125 = SPHERICAL_SURFACE ( 'NONE', #5, 1.047000000000000200 ) ;
#126 = CIRCLE ( 'NONE', #182, 1.000000000000000000 ) ;
#127 = AXIS2_PLACEMENT_3D ( 'NONE', #156, #112, #185 ) ;
#128 = CARTESIAN_POINT ( 'NONE',  ( -2.238397761927058100E-031, -1.047000000000000200, 6.411025993536394000E-017 ) ) ;
#129 = DIRECTION ( 'NONE',  ( 0.0000000000000000000, 0.0000000000000000000, 1.000000000000000000 ) ) ;
#130 = COORDINATED_UNIVERSAL_TIME_OFFSET ( 8, 0, .BEHIND. ) ;
#131 = PRODUCT_DEFINITION_SHAPE ( 'NONE', 'NONE',  #82 ) ;
#132 = CARTESIAN_POINT ( 'NONE',  ( 0.0000000000000000000, 0.0000000000000000000, 0.0000000000000000000 ) ) ;
#133 = AXIS2_PLACEMENT_3D ( 'NONE', #87, #63, #160 ) ;
#134 = CIRCLE ( 'NONE', #75, 1.047000000000000200 ) ;
#135 = CIRCLE ( 'NONE', #119, 1.047000000000000200 ) ;
#136 = ORIENTED_EDGE ( 'NONE', *, *, #153, .F. ) ;
#137 = MANIFOLD_SOLID_BREP ( 'Revolve1', #93 ) ;
#138 = ADVANCED_FACE ( 'NONE', ( #208 ), #81, .T. ) ;
#139 = EDGE_CURVE ( 'NONE', #123, #40, #145, .T. ) ;
#140 = DESIGN_CONTEXT ( 'detailed design', #34, 'design' ) ;
#141 = DATE_AND_TIME ( #73, #212 ) ;
#142 = DATE_TIME_ROLE ( 'classification_date' ) ;
#143 = COORDINATED_UNIVERSAL_TIME_OFFSET ( 8, 0, .BEHIND. ) ;
#144 = DIRECTION ( 'NONE',  ( -1.000000000000000000, 0.0000000000000000000, -3.491481338843133400E-015 ) ) ;
#145 = CIRCLE ( 'NONE', #193, 1.000000000000000000 ) ;
#146 = ORIENTED_EDGE ( 'NONE', *, *, #176, .T. ) ;
#147 =( LENGTH_UNIT ( ) NAMED_UNIT ( * ) SI_UNIT ( $, .METRE. ) );
#148 = EDGE_CURVE ( 'NONE', #40, #95, #89, .T. ) ;
#149 =( NAMED_UNIT ( * ) SI_UNIT ( $, .STERADIAN. ) SOLID_ANGLE_UNIT ( ) );
#150 = CARTESIAN_POINT ( 'NONE',  ( -3.491481338843133400E-015, -1.046999999999999900, 1.000000000000000000 ) ) ;
#151 = PRODUCT_RELATED_PRODUCT_CATEGORY ( 'detail', '', ( #20 ) ) ;
#152 =( CONVERSION_BASED_UNIT ( 'INCH', #195 ) LENGTH_UNIT ( ) NAMED_UNIT ( #102 ) );
#153 = EDGE_CURVE ( 'NONE', #206, #8, #135, .T. ) ;
#154 = SHAPE_DEFINITION_REPRESENTATION ( #131, #86 ) ;
#155 = PERSON ( 'UNSPECIFIED', 'UNSPECIFIED', 'UNSPECIFIED', ('UNSPECIFIED'), ('UNSPECIFIED'), ('UNSPECIFIED') ) ;
#156 = CARTESIAN_POINT ( 'NONE',  ( 0.0000000000000000000, -1.046999999999999900, 0.0000000000000000000 ) ) ;
#157 = DIRECTION ( 'NONE',  ( 7.183686085084865400E-030, -1.000000000000000000, -2.057489468772330800E-015 ) ) ;
#158 = DIRECTION ( 'NONE',  ( -3.491481338843133000E-015, 0.0000000000000000000, 1.000000000000000000 ) ) ;
#159 =( GEOMETRIC_REPRESENTATION_CONTEXT ( 3 ) GLOBAL_UNCERTAINTY_ASSIGNED_CONTEXT ( ( #177 ) ) GLOBAL_UNIT_ASSIGNED_CONTEXT ( ( #152, #109, #149 ) ) REPRESENTATION_CONTEXT ( 'NONE', 'WORKASPACE' ) );
#160 = DIRECTION ( 'NONE',  ( 0.0000000000000000000, 0.0000000000000000000, 1.000000000000000000 ) ) ;
#161 = PERSON_AND_ORGANIZATION_ROLE ( 'creator' ) ;
#162 = ORIENTED_EDGE ( 'NONE', *, *, #122, .T. ) ;
#163 = LINE ( 'NONE', #15, #18 ) ;
#164 = PERSON_AND_ORGANIZATION ( #155, #37 ) ;
#165 = CARTESIAN_POINT ( 'NONE',  ( -3.655580961768761000E-015, -1.046999999999999900, 1.047000000000000200 ) ) ;
#166 = ORIENTED_EDGE ( 'NONE', *, *, #139, .T. ) ;
#167 = CC_DESIGN_DATE_AND_TIME_ASSIGNMENT ( #70, #142, ( #71 ) ) ;
#168 = APPROVAL_ROLE ( '' ) ;
#169 = VECTOR ( 'NONE', #157, 39.37007874015748100 ) ;
#170 = SPHERICAL_SURFACE ( 'NONE', #105, 1.000000000000000000 ) ;
#171 = PERSON_AND_ORGANIZATION ( #155, #37 ) ;
#172 = CC_DESIGN_DATE_AND_TIME_ASSIGNMENT ( #43, #29, ( #82 ) ) ;
#173 = DATE_AND_TIME ( #9, #90 ) ;
#174 = DIRECTION ( 'NONE',  ( 3.491481338843133000E-015, 0.0000000000000000000, -1.000000000000000000 ) ) ;
#175 = LOCAL_TIME ( 17, 13, 49.00000000000000000, #91 ) ;
#176 = EDGE_CURVE ( 'NONE', #123, #95, #126, .T. ) ;
#177 = UNCERTAINTY_MEASURE_WITH_UNIT (LENGTH_MEASURE( 1.000000000000000100E-005 ), #152, 'distance_accuracy_value', 'NONE');
#178 = EDGE_LOOP ( 'NONE', ( #60, #111, #136 ) ) ;
#179 = DIRECTION ( 'NONE',  ( 0.0000000000000000000, 0.0000000000000000000, 1.000000000000000000 ) ) ;
#180 = ORIENTED_EDGE ( 'NONE', *, *, #176, .F. ) ;
#181 = CC_DESIGN_APPROVAL ( #107, ( #71 ) ) ;
#182 = AXIS2_PLACEMENT_3D ( 'NONE', #10, #78, #72 ) ;
#183 = APPROVAL_DATE_TIME ( #173, #197 ) ;
#184 = SECURITY_CLASSIFICATION_LEVEL ( 'unclassified' ) ;
#185 = DIRECTION ( 'NONE',  ( 0.0000000000000000000, 0.0000000000000000000, 1.000000000000000000 ) ) ;
#186 = VERTEX_POINT ( 'NONE', #213 ) ;
#187 = APPROVAL_PERSON_ORGANIZATION ( #171, #189, #67 ) ;
#188 = APPLICATION_PROTOCOL_DEFINITION ( 'international standard', 'config_control_design', 1994, #22 ) ;
#189 = APPROVAL ( #77, 'UNSPECIFIED' ) ;
#190 = DIRECTION ( 'NONE',  ( 1.000000000000000000, 0.0000000000000000000, 3.491481338843133400E-015 ) ) ;
#191 = ORIENTED_EDGE ( 'NONE', *, *, #153, .T. ) ;
#192 = DIRECTION ( 'NONE',  ( 1.000000000000000000, 0.0000000000000000000, 0.0000000000000000000 ) ) ;
#193 = AXIS2_PLACEMENT_3D ( 'NONE', #211, #190, #76 ) ;
#194 = CARTESIAN_POINT ( 'NONE',  ( 1.000000000000000000, -1.046999999999999900, 0.0000000000000000000 ) ) ;
#195 = LENGTH_MEASURE_WITH_UNIT ( LENGTH_MEASURE( 0.02539999999999999900 ), #147 );
#196 = CARTESIAN_POINT ( 'NONE',  ( -3.491481338843133400E-015, -1.046999999999999900, 1.000000000000000000 ) ) ;
#197 = APPROVAL ( #118, 'UNSPECIFIED' ) ;
#198 = LOCAL_TIME ( 17, 13, 49.00000000000000000, #106 ) ;
#199 = EDGE_CURVE ( 'NONE', #186, #8, #134, .T. ) ;
#200 = ADVANCED_FACE ( 'NONE', ( #53 ), #204, .F. ) ;
#201 = EDGE_LOOP ( 'NONE', ( #65, #120, #180, #35 ) ) ;
#202 = ADVANCED_FACE ( 'NONE', ( #24 ), #125, .T. ) ;
#203 = AXIS2_PLACEMENT_3D ( 'NONE', #41, #94, #174 ) ;
#204 = PLANE ( 'NONE',  #203 ) ;
#205 = DATE_AND_TIME ( #92, #58 ) ;
#206 = VERTEX_POINT ( 'NONE', #165 ) ;
#207 = PERSON_AND_ORGANIZATION_ROLE ( 'design_owner' ) ;
#208 = FACE_OUTER_BOUND ( 'NONE', #201, .T. ) ;
#209 = CC_DESIGN_APPROVAL ( #189, ( #25 ) ) ;
#210 = CARTESIAN_POINT ( 'NONE',  ( 0.0000000000000000000, 0.0000000000000000000, 0.0000000000000000000 ) ) ;
#211 = CARTESIAN_POINT ( 'NONE',  ( -2.238397761927058100E-031, -1.047000000000000200, 6.411025993536394000E-017 ) ) ;
#212 = LOCAL_TIME ( 17, 13, 49.00000000000000000, #14 ) ;
#213 = CARTESIAN_POINT ( 'NONE',  ( 1.047000000000000200, -1.046999999999999900, 0.0000000000000000000 ) ) ;
ENDSEC;
END-ISO-10303-21;
