ISO-10303-21;
HEADER;
FILE_DESCRIPTION (( 'STEP AP214' ),
    '1' );
FILE_NAME ('200407.STEP',
    '2017-03-06T17:55:54',
    ( 'temp' ),
    ( '' ),
    'SwSTEP 2.0',
    'SolidWorks 2016',
    '' );
FILE_SCHEMA (( 'AUTOMOTIVE_DESIGN' ));
ENDSEC;

DATA;
#1 = CARTESIAN_POINT ( 'NONE',  ( -2.618611004132350000E-015, -0.8549999999999998700, 0.7500000000000001100 ) ) ;
#2 = AXIS2_PLACEMENT_3D ( 'NONE', #41, #138, #143 ) ;
#3 = FACE_OUTER_BOUND ( 'NONE', #123, .T. ) ;
#4 = PRESENTATION_LAYER_ASSIGNMENT (  '', '', ( #174 ) ) ;
#5 = FACE_OUTER_BOUND ( 'NONE', #139, .T. ) ;
#6 = SPHERICAL_SURFACE ( 'NONE', #153, 0.7500000000000001100 ) ;
#7 = EDGE_CURVE ( 'NONE', #113, #130, #120, .T. ) ;
#8 = VERTEX_POINT ( 'NONE', #39 ) ;
#9 = MECHANICAL_DESIGN_GEOMETRIC_PRESENTATION_REPRESENTATION (  '', ( #174 ), #18 ) ;
#10 = CIRCLE ( 'NONE', #134, 0.8549999999999999800 ) ;
#11 =( CONVERSION_BASED_UNIT ( 'INCH', #67 ) LENGTH_UNIT ( ) NAMED_UNIT ( #62 ) );
#12 = CARTESIAN_POINT ( 'NONE',  ( -1.827917943120949900E-031, -0.8549999999999999800, 5.235365066354935100E-017 ) ) ;
#13 = APPLICATION_CONTEXT ( 'automotive_design' ) ;
#14 = CARTESIAN_POINT ( 'NONE',  ( 0.7500000000000001100, -0.8549999999999998700, 0.0000000000000000000 ) ) ;
#15 = ORIENTED_EDGE ( 'NONE', *, *, #21, .F. ) ;
#16 = LINE ( 'NONE', #68, #163 ) ;
#17 = AXIS2_PLACEMENT_3D ( 'NONE', #90, #132, #125 ) ;
#18 =( GEOMETRIC_REPRESENTATION_CONTEXT ( 3 ) GLOBAL_UNCERTAINTY_ASSIGNED_CONTEXT ( ( #82 ) ) GLOBAL_UNIT_ASSIGNED_CONTEXT ( ( #28, #182, #97 ) ) REPRESENTATION_CONTEXT ( 'NONE', 'WORKASPACE' ) );
#19 = PLANE ( 'NONE',  #55 ) ;
#20 = DIRECTION ( 'NONE',  ( -0.0000000000000000000, 1.000000000000000000, -0.0000000000000000000 ) ) ;
#21 = EDGE_CURVE ( 'NONE', #154, #150, #176, .T. ) ;
#22 = EDGE_LOOP ( 'NONE', ( #171, #24, #148 ) ) ;
#23 = DIRECTION ( 'NONE',  ( 1.000000000000000000, 0.0000000000000000000, 3.491481338843133000E-015 ) ) ;
#24 = ORIENTED_EDGE ( 'NONE', *, *, #80, .F. ) ;
#25 = DIRECTION ( 'NONE',  ( -1.000000000000000000, 0.0000000000000000000, 0.0000000000000000000 ) ) ;
#26 = DIRECTION ( 'NONE',  ( 2.269647355539775500E-030, -1.000000000000000000, -6.500528386876041200E-016 ) ) ;
#27 =( LENGTH_UNIT ( ) NAMED_UNIT ( * ) SI_UNIT ( $, .METRE. ) );
#28 =( CONVERSION_BASED_UNIT ( 'INCH', #70 ) LENGTH_UNIT ( ) NAMED_UNIT ( #32 ) );
#29 = FILL_AREA_STYLE ('',( #167 ) ) ;
#30 = DIRECTION ( 'NONE',  ( 1.000000000000000000, 0.0000000000000000000, 0.0000000000000000000 ) ) ;
#31 = UNCERTAINTY_MEASURE_WITH_UNIT (LENGTH_MEASURE( 1.000000000000000100E-005 ), #11, 'distance_accuracy_value', 'NONE');
#32 = DIMENSIONAL_EXPONENTS ( 1.000000000000000000, 0.0000000000000000000, 0.0000000000000000000, 0.0000000000000000000, 0.0000000000000000000, 0.0000000000000000000, 0.0000000000000000000 ) ;
#33 =( NAMED_UNIT ( * ) PLANE_ANGLE_UNIT ( ) SI_UNIT ( $, .RADIAN. ) );
#34 = MANIFOLD_SOLID_BREP ( 'Revolve1', #57 ) ;
#35 = ADVANCED_FACE ( 'NONE', ( #5 ), #181, .F. ) ;
#36 = ORIENTED_EDGE ( 'NONE', *, *, #178, .T. ) ;
#37 = ORIENTED_EDGE ( 'NONE', *, *, #126, .F. ) ;
#38 = DIRECTION ( 'NONE',  ( -0.0000000000000000000, 1.000000000000000000, -0.0000000000000000000 ) ) ;
#39 = CARTESIAN_POINT ( 'NONE',  ( -2.985216544710879600E-015, -0.8549999999999998700, 0.8550000000000002000 ) ) ;
#40 = CIRCLE ( 'NONE', #106, 0.7500000000000001100 ) ;
#41 = CARTESIAN_POINT ( 'NONE',  ( -2.618611004132350000E-015, -0.8549999999999998700, 0.7500000000000001100 ) ) ;
#42 = SHAPE_DEFINITION_REPRESENTATION ( #170, #50 ) ;
#43 = CARTESIAN_POINT ( 'NONE',  ( -1.827917943120949900E-031, -0.8549999999999999800, 5.235365066354935100E-017 ) ) ;
#44 = ORIENTED_EDGE ( 'NONE', *, *, #111, .T. ) ;
#45 = AXIS2_PLACEMENT_3D ( 'NONE', #101, #38, #86 ) ;
#46 = CARTESIAN_POINT ( 'NONE',  ( 5.235365066354935100E-017, -0.8549999999999999800, 0.0000000000000000000 ) ) ;
#47 = ORIENTED_EDGE ( 'NONE', *, *, #80, .T. ) ;
#48 = VECTOR ( 'NONE', #26, 39.37007874015748100 ) ;
#49 = SURFACE_SIDE_STYLE ('',( #172 ) ) ;
#50 = ADVANCED_BREP_SHAPE_REPRESENTATION ( '200407', ( #34, #56 ), #159 ) ;
#51 = ADVANCED_FACE ( 'NONE', ( #65 ), #19, .T. ) ;
#52 = SURFACE_STYLE_FILL_AREA ( #116 ) ;
#53 = SPHERICAL_SURFACE ( 'NONE', #141, 0.8549999999999999800 ) ;
#54 = CARTESIAN_POINT ( 'NONE',  ( 5.235365066354935100E-017, -0.8549999999999999800, 0.0000000000000000000 ) ) ;
#55 = AXIS2_PLACEMENT_3D ( 'NONE', #46, #93, #152 ) ;
#56 = AXIS2_PLACEMENT_3D ( 'NONE', #109, #121, #30 ) ;
#57 = CLOSED_SHELL ( 'NONE', ( #110, #100, #158, #35, #51 ) ) ;
#58 = FACE_OUTER_BOUND ( 'NONE', #22, .T. ) ;
#59 = DIRECTION ( 'NONE',  ( 1.000000000000000000, 0.0000000000000000000, 0.0000000000000000000 ) ) ;
#60 = SURFACE_SIDE_STYLE ('',( #52 ) ) ;
#61 = DIRECTION ( 'NONE',  ( 3.491481338843133000E-015, 0.0000000000000000000, -1.000000000000000000 ) ) ;
#62 = DIMENSIONAL_EXPONENTS ( 1.000000000000000000, 0.0000000000000000000, 0.0000000000000000000, 0.0000000000000000000, 0.0000000000000000000, 0.0000000000000000000, 0.0000000000000000000 ) ;
#63 = CIRCLE ( 'NONE', #17, 0.7500000000000001100 ) ;
#64 = PRODUCT_DEFINITION ( 'UNKNOWN', '', #73, #103 ) ;
#65 = FACE_OUTER_BOUND ( 'NONE', #183, .T. ) ;
#66 = UNCERTAINTY_MEASURE_WITH_UNIT (LENGTH_MEASURE( 1.000000000000000100E-005 ), #157, 'distance_accuracy_value', 'NONE');
#67 = LENGTH_MEASURE_WITH_UNIT ( LENGTH_MEASURE( 0.02539999999999999900 ), #27 );
#68 = CARTESIAN_POINT ( 'NONE',  ( 0.7500000000000001100, -0.8549999999999998700, 0.0000000000000000000 ) ) ;
#69 = ORIENTED_EDGE ( 'NONE', *, *, #126, .T. ) ;
#70 = LENGTH_MEASURE_WITH_UNIT ( LENGTH_MEASURE( 0.02539999999999999900 ), #96 );
#71 = COLOUR_RGB ( '',0.7764705882352941300, 0.7568627450980391900, 0.7372549019607843600 ) ;
#72 = CARTESIAN_POINT ( 'NONE',  ( -1.827917943120949900E-031, -0.8549999999999999800, 5.235365066354935100E-017 ) ) ;
#73 = PRODUCT_DEFINITION_FORMATION_WITH_SPECIFIED_SOURCE ( 'ANY', '', #137, .NOT_KNOWN. ) ;
#74 =( LENGTH_UNIT ( ) NAMED_UNIT ( * ) SI_UNIT ( $, .METRE. ) );
#75 = DIRECTION ( 'NONE',  ( 0.0000000000000000000, 0.0000000000000000000, 1.000000000000000000 ) ) ;
#76 =( NAMED_UNIT ( * ) SI_UNIT ( $, .STERADIAN. ) SOLID_ANGLE_UNIT ( ) );
#77 = LENGTH_MEASURE_WITH_UNIT ( LENGTH_MEASURE( 0.02539999999999999900 ), #74 );
#78 = DIMENSIONAL_EXPONENTS ( 1.000000000000000000, 0.0000000000000000000, 0.0000000000000000000, 0.0000000000000000000, 0.0000000000000000000, 0.0000000000000000000, 0.0000000000000000000 ) ;
#79 = ORIENTED_EDGE ( 'NONE', *, *, #104, .T. ) ;
#80 = EDGE_CURVE ( 'NONE', #179, #150, #40, .T. ) ;
#81 = ORIENTED_EDGE ( 'NONE', *, *, #178, .F. ) ;
#82 = UNCERTAINTY_MEASURE_WITH_UNIT (LENGTH_MEASURE( 1.000000000000000100E-005 ), #28, 'distance_accuracy_value', 'NONE');
#83 = SURFACE_STYLE_USAGE ( .BOTH. , #60 ) ;
#84 = DIRECTION ( 'NONE',  ( 1.000000000000000000, 0.0000000000000000000, 3.491481338843133400E-015 ) ) ;
#85 = DIRECTION ( 'NONE',  ( 0.0000000000000000000, 0.0000000000000000000, 1.000000000000000000 ) ) ;
#86 = DIRECTION ( 'NONE',  ( 0.0000000000000000000, 0.0000000000000000000, 1.000000000000000000 ) ) ;
#87 = PRODUCT_RELATED_PRODUCT_CATEGORY ( 'part', '', ( #137 ) ) ;
#88 = PRESENTATION_STYLE_ASSIGNMENT (( #83 ) ) ;
#89 = DIRECTION ( 'NONE',  ( -0.0000000000000000000, -0.0000000000000000000, -1.000000000000000000 ) ) ;
#90 = CARTESIAN_POINT ( 'NONE',  ( -1.827917943120949900E-031, -0.8549999999999999800, 5.235365066354935100E-017 ) ) ;
#91 = CARTESIAN_POINT ( 'NONE',  ( 2.383129723316763400E-031, -0.1049999999999999700, -6.825554806219841300E-017 ) ) ;
#92 = ORIENTED_EDGE ( 'NONE', *, *, #135, .F. ) ;
#93 = DIRECTION ( 'NONE',  ( -0.0000000000000000000, 0.0000000000000000000, -1.000000000000000000 ) ) ;
#94 = APPLICATION_PROTOCOL_DEFINITION ( 'draft international standard', 'automotive_design', 1998, #98 ) ;
#95 = EDGE_CURVE ( 'NONE', #154, #179, #63, .T. ) ;
#96 =( LENGTH_UNIT ( ) NAMED_UNIT ( * ) SI_UNIT ( $, .METRE. ) );
#97 =( NAMED_UNIT ( * ) SI_UNIT ( $, .STERADIAN. ) SOLID_ANGLE_UNIT ( ) );
#98 = APPLICATION_CONTEXT ( 'automotive_design' ) ;
#99 = DIRECTION ( 'NONE',  ( -3.491481338843133400E-015, 0.0000000000000000000, 1.000000000000000000 ) ) ;
#100 = ADVANCED_FACE ( 'NONE', ( #3 ), #107, .F. ) ;
#101 = CARTESIAN_POINT ( 'NONE',  ( 0.0000000000000000000, -0.8549999999999998700, 0.0000000000000000000 ) ) ;
#102 =( NAMED_UNIT ( * ) SI_UNIT ( $, .STERADIAN. ) SOLID_ANGLE_UNIT ( ) );
#103 = PRODUCT_DEFINITION_CONTEXT ( 'detailed design', #98, 'design' ) ;
#104 = EDGE_CURVE ( 'NONE', #8, #113, #160, .T. ) ;
#105 = CARTESIAN_POINT ( 'NONE',  ( 0.0000000000000000000, -0.8549999999999998700, 0.0000000000000000000 ) ) ;
#106 = AXIS2_PLACEMENT_3D ( 'NONE', #105, #20, #75 ) ;
#107 = PLANE ( 'NONE',  #2 ) ;
#108 = ORIENTED_EDGE ( 'NONE', *, *, #111, .F. ) ;
#109 = CARTESIAN_POINT ( 'NONE',  ( 0.0000000000000000000, 0.0000000000000000000, 0.0000000000000000000 ) ) ;
#110 = ADVANCED_FACE ( 'NONE', ( #133 ), #53, .T. ) ;
#111 = EDGE_CURVE ( 'NONE', #130, #154, #131, .T. ) ;
#112 = AXIS2_PLACEMENT_3D ( 'NONE', #43, #23, #127 ) ;
#113 = VERTEX_POINT ( 'NONE', #115 ) ;
#114 = EDGE_LOOP ( 'NONE', ( #79, #168, #81 ) ) ;
#115 = CARTESIAN_POINT ( 'NONE',  ( 0.8550000000000002000, -0.8549999999999998700, 0.0000000000000000000 ) ) ;
#116 = FILL_AREA_STYLE ('',( #173 ) ) ;
#117 = CARTESIAN_POINT ( 'NONE',  ( 0.0000000000000000000, 0.0000000000000000000, 0.0000000000000000000 ) ) ;
#118 = CARTESIAN_POINT ( 'NONE',  ( -2.618611004132350000E-015, -0.8549999999999998700, 0.7500000000000001100 ) ) ;
#119 = DIRECTION ( 'NONE',  ( -1.000000000000000000, 0.0000000000000000000, -3.491481338843133400E-015 ) ) ;
#120 = CIRCLE ( 'NONE', #162, 0.8549999999999999800 ) ;
#121 = DIRECTION ( 'NONE',  ( 0.0000000000000000000, 0.0000000000000000000, 1.000000000000000000 ) ) ;
#122 = PRESENTATION_LAYER_ASSIGNMENT (  '', '', ( #169 ) ) ;
#123 = EDGE_LOOP ( 'NONE', ( #47, #69, #136, #92 ) ) ;
#124 = LINE ( 'NONE', #1, #177 ) ;
#125 = DIRECTION ( 'NONE',  ( 3.491481338843133000E-015, 0.0000000000000000000, -1.000000000000000000 ) ) ;
#126 = EDGE_CURVE ( 'NONE', #150, #113, #16, .T. ) ;
#127 = DIRECTION ( 'NONE',  ( 3.491481338843133000E-015, 0.0000000000000000000, -1.000000000000000000 ) ) ;
#128 = AXIS2_PLACEMENT_3D ( 'NONE', #175, #89, #25 ) ;
#129 = CARTESIAN_POINT ( 'NONE',  ( 0.0000000000000000000, 0.0000000000000000000, 0.0000000000000000000 ) ) ;
#130 = VERTEX_POINT ( 'NONE', #129 ) ;
#131 = LINE ( 'NONE', #117, #48 ) ;
#132 = DIRECTION ( 'NONE',  ( 1.000000000000000000, 0.0000000000000000000, 3.491481338843133400E-015 ) ) ;
#133 = FACE_OUTER_BOUND ( 'NONE', #114, .T. ) ;
#134 = AXIS2_PLACEMENT_3D ( 'NONE', #12, #119, #144 ) ;
#135 = EDGE_CURVE ( 'NONE', #179, #8, #124, .T. ) ;
#136 = ORIENTED_EDGE ( 'NONE', *, *, #104, .F. ) ;
#137 = PRODUCT ( '200407', '200407', '', ( #147 ) ) ;
#138 = DIRECTION ( 'NONE',  ( -0.0000000000000000000, 1.000000000000000000, 0.0000000000000000000 ) ) ;
#139 = EDGE_LOOP ( 'NONE', ( #36, #44, #145, #155 ) ) ;
#140 = CARTESIAN_POINT ( 'NONE',  ( -1.827917943120949900E-031, -0.8549999999999999800, 5.235365066354935100E-017 ) ) ;
#141 = AXIS2_PLACEMENT_3D ( 'NONE', #140, #84, #99 ) ;
#142 = DIRECTION ( 'NONE',  ( -1.000000000000000000, 0.0000000000000000000, -3.491481338843133000E-015 ) ) ;
#143 = DIRECTION ( 'NONE',  ( 0.0000000000000000000, 0.0000000000000000000, 1.000000000000000000 ) ) ;
#144 = DIRECTION ( 'NONE',  ( 3.491481338843133700E-015, 0.0000000000000000000, -1.000000000000000000 ) ) ;
#145 = ORIENTED_EDGE ( 'NONE', *, *, #95, .T. ) ;
#146 = SURFACE_STYLE_USAGE ( .BOTH. , #49 ) ;
#147 = PRODUCT_CONTEXT ( 'NONE', #13, 'mechanical' ) ;
#148 = ORIENTED_EDGE ( 'NONE', *, *, #95, .F. ) ;
#149 = MECHANICAL_DESIGN_GEOMETRIC_PRESENTATION_REPRESENTATION (  '', ( #169 ), #180 ) ;
#150 = VERTEX_POINT ( 'NONE', #14 ) ;
#151 = PRESENTATION_STYLE_ASSIGNMENT (( #146 ) ) ;
#152 = DIRECTION ( 'NONE',  ( -1.000000000000000000, 0.0000000000000000000, 0.0000000000000000000 ) ) ;
#153 = AXIS2_PLACEMENT_3D ( 'NONE', #72, #142, #61 ) ;
#154 = VERTEX_POINT ( 'NONE', #91 ) ;
#155 = ORIENTED_EDGE ( 'NONE', *, *, #135, .T. ) ;
#156 = COLOUR_RGB ( '',0.7764705882352941300, 0.7568627450980391900, 0.7372549019607843600 ) ;
#157 =( CONVERSION_BASED_UNIT ( 'INCH', #77 ) LENGTH_UNIT ( ) NAMED_UNIT ( #78 ) );
#158 = ADVANCED_FACE ( 'NONE', ( #58 ), #6, .F. ) ;
#159 =( GEOMETRIC_REPRESENTATION_CONTEXT ( 3 ) GLOBAL_UNCERTAINTY_ASSIGNED_CONTEXT ( ( #66 ) ) GLOBAL_UNIT_ASSIGNED_CONTEXT ( ( #157, #33, #76 ) ) REPRESENTATION_CONTEXT ( 'NONE', 'WORKASPACE' ) );
#160 = CIRCLE ( 'NONE', #45, 0.8550000000000002000 ) ;
#161 = DIRECTION ( 'NONE',  ( -1.000000000000000000, 0.0000000000000000000, 0.0000000000000000000 ) ) ;
#162 = AXIS2_PLACEMENT_3D ( 'NONE', #54, #85, #161 ) ;
#163 = VECTOR ( 'NONE', #59, 39.37007874015748100 ) ;
#164 =( NAMED_UNIT ( * ) PLANE_ANGLE_UNIT ( ) SI_UNIT ( $, .RADIAN. ) );
#165 = ORIENTED_EDGE ( 'NONE', *, *, #7, .F. ) ;
#166 = DIRECTION ( 'NONE',  ( -3.491481338843133000E-015, 0.0000000000000000000, 1.000000000000000000 ) ) ;
#167 = FILL_AREA_STYLE_COLOUR ( '', #156 ) ;
#168 = ORIENTED_EDGE ( 'NONE', *, *, #7, .T. ) ;
#169 = STYLED_ITEM ( 'NONE', ( #88 ), #34 ) ;
#170 = PRODUCT_DEFINITION_SHAPE ( 'NONE', 'NONE',  #64 ) ;
#171 = ORIENTED_EDGE ( 'NONE', *, *, #21, .T. ) ;
#172 = SURFACE_STYLE_FILL_AREA ( #29 ) ;
#173 = FILL_AREA_STYLE_COLOUR ( '', #71 ) ;
#174 = STYLED_ITEM ( 'NONE', ( #151 ), #50 ) ;
#175 = CARTESIAN_POINT ( 'NONE',  ( 5.235365066354935100E-017, -0.8549999999999999800, 0.0000000000000000000 ) ) ;
#176 = CIRCLE ( 'NONE', #128, 0.7500000000000001100 ) ;
#177 = VECTOR ( 'NONE', #166, 39.37007874015748100 ) ;
#178 = EDGE_CURVE ( 'NONE', #8, #130, #10, .T. ) ;
#179 = VERTEX_POINT ( 'NONE', #118 ) ;
#180 =( GEOMETRIC_REPRESENTATION_CONTEXT ( 3 ) GLOBAL_UNCERTAINTY_ASSIGNED_CONTEXT ( ( #31 ) ) GLOBAL_UNIT_ASSIGNED_CONTEXT ( ( #11, #164, #102 ) ) REPRESENTATION_CONTEXT ( 'NONE', 'WORKASPACE' ) );
#181 = PLANE ( 'NONE',  #112 ) ;
#182 =( NAMED_UNIT ( * ) PLANE_ANGLE_UNIT ( ) SI_UNIT ( $, .RADIAN. ) );
#183 = EDGE_LOOP ( 'NONE', ( #165, #37, #15, #108 ) ) ;
#184 = APPLICATION_PROTOCOL_DEFINITION ( 'draft international standard', 'automotive_design', 1998, #13 ) ;
ENDSEC;
END-ISO-10303-21;
