ISO-10303-21;
HEADER;
FILE_DESCRIPTION (( 'STEP AP203' ),
    '1' );
FILE_NAME ('200405.STEP',
    '2017-01-12T16:29:38',
    ( 'temp' ),
    ( '' ),
    'SwSTEP 2.0',
    'SolidWorks 2016',
    '' );
FILE_SCHEMA (( 'CONFIG_CONTROL_DESIGN' ));
ENDSEC;

DATA;
#1 = CALENDAR_DATE ( 2017, 12, 1 ) ;
#2 = PERSON_AND_ORGANIZATION_ROLE ( 'classification_officer' ) ;
#3 = PERSON_AND_ORGANIZATION_ROLE ( 'design_owner' ) ;
#4 = ORIENTED_EDGE ( 'NONE', *, *, #52, .F. ) ;
#5 = CARTESIAN_POINT ( 'NONE',  ( 2.447267195005217100E-031, -0.07500000000000002500, -7.009251826091941400E-017 ) ) ;
#6 = AXIS2_PLACEMENT_3D ( 'NONE', #164, #131, #7 ) ;
#7 = DIRECTION ( 'NONE',  ( 0.0000000000000000000, 0.0000000000000000000, 1.000000000000000000 ) ) ;
#8 = CARTESIAN_POINT ( 'NONE',  ( 0.8249999999999999600, -0.8249999999999999600, 0.0000000000000000000 ) ) ;
#9 = LOCAL_TIME ( 8, 29, 38.00000000000000000, #11 ) ;
#10 = EDGE_CURVE ( 'NONE', #195, #82, #141, .T. ) ;
#11 = COORDINATED_UNIVERSAL_TIME_OFFSET ( 8, 0, .BEHIND. ) ;
#12 = EDGE_LOOP ( 'NONE', ( #86, #114, #29 ) ) ;
#13 = CALENDAR_DATE ( 2017, 12, 1 ) ;
#14 = CIRCLE ( 'NONE', #209, 0.8249999999999999600 ) ;
#15 = EDGE_CURVE ( 'NONE', #48, #32, #68, .T. ) ;
#16 = PERSON_AND_ORGANIZATION_ROLE ( 'design_supplier' ) ;
#17 = DIRECTION ( 'NONE',  ( 1.000000000000000000, 0.0000000000000000000, 0.0000000000000000000 ) ) ;
#18 = EDGE_LOOP ( 'NONE', ( #155, #4, #93, #110 ) ) ;
#19 = ADVANCED_FACE ( 'NONE', ( #136 ), #118, .F. ) ;
#20 = PLANE ( 'NONE',  #6 ) ;
#21 = DIRECTION ( 'NONE',  ( -1.000000000000000000, 0.0000000000000000000, -3.491481338843133400E-015 ) ) ;
#22 = PERSON_AND_ORGANIZATION ( #65, #186 ) ;
#23 = ORIENTED_EDGE ( 'NONE', *, *, #10, .T. ) ;
#24 = CARTESIAN_POINT ( 'NONE',  ( 0.0000000000000000000, 0.0000000000000000000, 0.0000000000000000000 ) ) ;
#25 =( GEOMETRIC_REPRESENTATION_CONTEXT ( 3 ) GLOBAL_UNCERTAINTY_ASSIGNED_CONTEXT ( ( #128 ) ) GLOBAL_UNIT_ASSIGNED_CONTEXT ( ( #91, #187, #73 ) ) REPRESENTATION_CONTEXT ( 'NONE', 'WORKASPACE' ) );
#26 = APPROVAL_PERSON_ORGANIZATION ( #22, #99, #33 ) ;
#27 = FACE_OUTER_BOUND ( 'NONE', #12, .T. ) ;
#28 = EDGE_CURVE ( 'NONE', #207, #82, #119, .T. ) ;
#29 = ORIENTED_EDGE ( 'NONE', *, *, #80, .F. ) ;
#30 = DATE_AND_TIME ( #13, #45 ) ;
#31 = LINE ( 'NONE', #117, #178 ) ;
#32 = VERTEX_POINT ( 'NONE', #135 ) ;
#33 = APPROVAL_ROLE ( '' ) ;
#34 = APPLICATION_CONTEXT ( 'configuration controlled 3d designs of mechanical parts and assemblies' ) ;
#35 = DIRECTION ( 'NONE',  ( -0.0000000000000000000, 0.0000000000000000000, -1.000000000000000000 ) ) ;
#36 = AXIS2_PLACEMENT_3D ( 'NONE', #200, #35, #148 ) ;
#37 = ADVANCED_FACE ( 'NONE', ( #121 ), #126, .F. ) ;
#38 = COORDINATED_UNIVERSAL_TIME_OFFSET ( 8, 0, .BEHIND. ) ;
#39 = CARTESIAN_POINT ( 'NONE',  ( -2.880472104545584600E-015, -0.8249999999999999600, 0.8249999999999999600 ) ) ;
#40 = LINE ( 'NONE', #96, #109 ) ;
#41 = CARTESIAN_POINT ( 'NONE',  ( -1.763780471432495500E-031, -0.8250000000000000700, 5.051668046482832500E-017 ) ) ;
#42 = DIRECTION ( 'NONE',  ( 1.000000000000000000, 0.0000000000000000000, 3.491481338843133000E-015 ) ) ;
#43 = FACE_OUTER_BOUND ( 'NONE', #160, .T. ) ;
#44 = EDGE_CURVE ( 'NONE', #32, #207, #46, .T. ) ;
#45 = LOCAL_TIME ( 8, 29, 38.00000000000000000, #38 ) ;
#46 = LINE ( 'NONE', #24, #192 ) ;
#47 = ORIENTED_EDGE ( 'NONE', *, *, #159, .F. ) ;
#48 = VERTEX_POINT ( 'NONE', #8 ) ;
#49 = APPROVAL_DATE_TIME ( #55, #123 ) ;
#50 = CIRCLE ( 'NONE', #154, 0.8250000000000000700 ) ;
#51 = EDGE_LOOP ( 'NONE', ( #213, #76, #169, #64 ) ) ;
#52 = EDGE_CURVE ( 'NONE', #82, #48, #31, .T. ) ;
#53 = DATE_TIME_ROLE ( 'creation_date' ) ;
#54 = APPLICATION_PROTOCOL_DEFINITION ( 'international standard', 'config_control_design', 1994, #34 ) ;
#55 = DATE_AND_TIME ( #165, #171 ) ;
#56 = PERSON_AND_ORGANIZATION ( #65, #186 ) ;
#57 = DIRECTION ( 'NONE',  ( -0.0000000000000000000, 1.000000000000000000, -0.0000000000000000000 ) ) ;
#58 = DIRECTION ( 'NONE',  ( -3.491481338843133000E-015, 0.0000000000000000000, 1.000000000000000000 ) ) ;
#59 = SPHERICAL_SURFACE ( 'NONE', #194, 0.8250000000000000700 ) ;
#60 = DIRECTION ( 'NONE',  ( 3.491481338843133000E-015, 0.0000000000000000000, -1.000000000000000000 ) ) ;
#61 = DIRECTION ( 'NONE',  ( -0.0000000000000000000, 1.000000000000000000, -0.0000000000000000000 ) ) ;
#62 = CC_DESIGN_PERSON_AND_ORGANIZATION_ASSIGNMENT ( #211, #173, ( #112 ) ) ;
#63 = PRODUCT_DEFINITION_SHAPE ( 'NONE', 'NONE',  #112 ) ;
#64 = ORIENTED_EDGE ( 'NONE', *, *, #66, .T. ) ;
#65 = PERSON ( 'UNSPECIFIED', 'UNSPECIFIED', 'UNSPECIFIED', ('UNSPECIFIED'), ('UNSPECIFIED'), ('UNSPECIFIED') ) ;
#66 = EDGE_CURVE ( 'NONE', #195, #104, #40, .T. ) ;
#67 = LENGTH_MEASURE_WITH_UNIT ( LENGTH_MEASURE( 0.02539999999999999900 ), #199 );
#68 = CIRCLE ( 'NONE', #103, 0.8250000000000000700 ) ;
#69 = ORIENTED_EDGE ( 'NONE', *, *, #10, .F. ) ;
#70 = CARTESIAN_POINT ( 'NONE',  ( -1.763780471432495500E-031, -0.8250000000000000700, 5.051668046482832500E-017 ) ) ;
#71 = CC_DESIGN_DATE_AND_TIME_ASSIGNMENT ( #30, #53, ( #112 ) ) ;
#72 = APPROVAL_ROLE ( '' ) ;
#73 =( NAMED_UNIT ( * ) SI_UNIT ( $, .STERADIAN. ) SOLID_ANGLE_UNIT ( ) );
#74 = CARTESIAN_POINT ( 'NONE',  ( -2.618611004132350000E-015, -0.8249999999999999600, 0.7500000000000001100 ) ) ;
#75 = DIRECTION ( 'NONE',  ( 3.491481338843133000E-015, 0.0000000000000000000, -1.000000000000000000 ) ) ;
#76 = ORIENTED_EDGE ( 'NONE', *, *, #44, .T. ) ;
#77 = CARTESIAN_POINT ( 'NONE',  ( 0.7500000000000001100, -0.8249999999999999600, 0.0000000000000000000 ) ) ;
#78 = DIRECTION ( 'NONE',  ( -1.000000000000000000, 0.0000000000000000000, 0.0000000000000000000 ) ) ;
#79 = CARTESIAN_POINT ( 'NONE',  ( 5.051668046482832500E-017, -0.8250000000000000700, 0.0000000000000000000 ) ) ;
#80 = EDGE_CURVE ( 'NONE', #104, #32, #50, .T. ) ;
#81 = EDGE_CURVE ( 'NONE', #207, #195, #172, .T. ) ;
#82 = VERTEX_POINT ( 'NONE', #77 ) ;
#83 = PRODUCT ( '200405', '200405', '', ( #129 ) ) ;
#84 = PRODUCT_DEFINITION_FORMATION_WITH_SPECIFIED_SOURCE ( 'ANY', '', #83, .NOT_KNOWN. ) ;
#85 = AXIS2_PLACEMENT_3D ( 'NONE', #130, #147, #17 ) ;
#86 = ORIENTED_EDGE ( 'NONE', *, *, #159, .T. ) ;
#87 = DATE_AND_TIME ( #105, #102 ) ;
#88 = AXIS2_PLACEMENT_3D ( 'NONE', #153, #61, #205 ) ;
#89 = APPROVAL_ROLE ( '' ) ;
#90 = APPLICATION_PROTOCOL_DEFINITION ( 'international standard', 'config_control_design', 1994, #108 ) ;
#91 =( CONVERSION_BASED_UNIT ( 'INCH', #67 ) LENGTH_UNIT ( ) NAMED_UNIT ( #208 ) );
#92 = DESIGN_CONTEXT ( 'detailed design', #108, 'design' ) ;
#93 = ORIENTED_EDGE ( 'NONE', *, *, #28, .F. ) ;
#94 = PLANE ( 'NONE',  #36 ) ;
#95 = ADVANCED_FACE ( 'NONE', ( #27 ), #59, .T. ) ;
#96 = CARTESIAN_POINT ( 'NONE',  ( -2.618611004132350000E-015, -0.8249999999999999600, 0.7500000000000001100 ) ) ;
#97 = CARTESIAN_POINT ( 'NONE',  ( 5.051668046482832500E-017, -0.8250000000000000700, 0.0000000000000000000 ) ) ;
#98 = APPROVAL_DATE_TIME ( #87, #174 ) ;
#99 = APPROVAL ( #162, 'UNSPECIFIED' ) ;
#100 = ORIENTED_EDGE ( 'NONE', *, *, #52, .T. ) ;
#101 = CC_DESIGN_PERSON_AND_ORGANIZATION_ASSIGNMENT ( #56, #3, ( #83 ) ) ;
#102 = LOCAL_TIME ( 8, 29, 38.00000000000000000, #115 ) ;
#103 = AXIS2_PLACEMENT_3D ( 'NONE', #79, #180, #166 ) ;
#104 = VERTEX_POINT ( 'NONE', #39 ) ;
#105 = CALENDAR_DATE ( 2017, 12, 1 ) ;
#106 = DATE_TIME_ROLE ( 'classification_date' ) ;
#107 = CC_DESIGN_APPROVAL ( #99, ( #84 ) ) ;
#108 = APPLICATION_CONTEXT ( 'configuration controlled 3d designs of mechanical parts and assemblies' ) ;
#109 = VECTOR ( 'NONE', #151, 39.37007874015748100 ) ;
#110 = ORIENTED_EDGE ( 'NONE', *, *, #44, .F. ) ;
#111 = ADVANCED_FACE ( 'NONE', ( #43 ), #20, .F. ) ;
#112 = PRODUCT_DEFINITION ( 'UNKNOWN', '', #84, #92 ) ;
#113 = DIRECTION ( 'NONE',  ( 1.000000000000000000, 0.0000000000000000000, 3.491481338843133000E-015 ) ) ;
#114 = ORIENTED_EDGE ( 'NONE', *, *, #15, .T. ) ;
#115 = COORDINATED_UNIVERSAL_TIME_OFFSET ( 8, 0, .BEHIND. ) ;
#116 = MANIFOLD_SOLID_BREP ( 'Revolve1', #158 ) ;
#117 = CARTESIAN_POINT ( 'NONE',  ( 0.7500000000000001100, -0.8249999999999999600, 0.0000000000000000000 ) ) ;
#118 = PLANE ( 'NONE',  #142 ) ;
#119 = CIRCLE ( 'NONE', #125, 0.7500000000000001100 ) ;
#120 = APPROVAL_PERSON_ORGANIZATION ( #132, #174, #89 ) ;
#121 = FACE_OUTER_BOUND ( 'NONE', #210, .T. ) ;
#122 = CC_DESIGN_PERSON_AND_ORGANIZATION_ASSIGNMENT ( #193, #145, ( #84 ) ) ;
#123 = APPROVAL ( #185, 'UNSPECIFIED' ) ;
#124 = DATE_AND_TIME ( #143, #139 ) ;
#125 = AXIS2_PLACEMENT_3D ( 'NONE', #97, #189, #78 ) ;
#126 = SPHERICAL_SURFACE ( 'NONE', #161, 0.7500000000000001100 ) ;
#127 = SECURITY_CLASSIFICATION_LEVEL ( 'unclassified' ) ;
#128 = UNCERTAINTY_MEASURE_WITH_UNIT (LENGTH_MEASURE( 1.000000000000000100E-005 ), #91, 'distance_accuracy_value', 'NONE');
#129 = MECHANICAL_CONTEXT ( 'NONE', #34, 'mechanical' ) ;
#130 = CARTESIAN_POINT ( 'NONE',  ( 0.0000000000000000000, 0.0000000000000000000, 0.0000000000000000000 ) ) ;
#131 = DIRECTION ( 'NONE',  ( -0.0000000000000000000, 1.000000000000000000, 0.0000000000000000000 ) ) ;
#132 = PERSON_AND_ORGANIZATION ( #65, #186 ) ;
#133 = DIRECTION ( 'NONE',  ( 3.491481338843133000E-015, 0.0000000000000000000, -1.000000000000000000 ) ) ;
#134 = DIRECTION ( 'NONE',  ( 3.263022926673622300E-030, -1.000000000000000000, -9.345669101455920500E-016 ) ) ;
#135 = CARTESIAN_POINT ( 'NONE',  ( 0.0000000000000000000, 0.0000000000000000000, 0.0000000000000000000 ) ) ;
#136 = FACE_OUTER_BOUND ( 'NONE', #51, .T. ) ;
#137 = CC_DESIGN_PERSON_AND_ORGANIZATION_ASSIGNMENT ( #196, #16, ( #84 ) ) ;
#138 = ADVANCED_BREP_SHAPE_REPRESENTATION ( '200405', ( #116, #85 ), #25 ) ;
#139 = LOCAL_TIME ( 8, 29, 38.00000000000000000, #149 ) ;
#140 = CC_DESIGN_APPROVAL ( #123, ( #112 ) ) ;
#141 = CIRCLE ( 'NONE', #88, 0.7500000000000001100 ) ;
#142 = AXIS2_PLACEMENT_3D ( 'NONE', #70, #42, #152 ) ;
#143 = CALENDAR_DATE ( 2017, 12, 1 ) ;
#144 = ORIENTED_EDGE ( 'NONE', *, *, #81, .F. ) ;
#145 = PERSON_AND_ORGANIZATION_ROLE ( 'creator' ) ;
#146 = SECURITY_CLASSIFICATION ( '', '', #127 ) ;
#147 = DIRECTION ( 'NONE',  ( 0.0000000000000000000, 0.0000000000000000000, 1.000000000000000000 ) ) ;
#148 = DIRECTION ( 'NONE',  ( -1.000000000000000000, 0.0000000000000000000, 0.0000000000000000000 ) ) ;
#149 = COORDINATED_UNIVERSAL_TIME_OFFSET ( 8, 0, .BEHIND. ) ;
#150 = CARTESIAN_POINT ( 'NONE',  ( -1.763780471432495500E-031, -0.8250000000000000700, 5.051668046482832500E-017 ) ) ;
#151 = DIRECTION ( 'NONE',  ( -3.491481338843133000E-015, 0.0000000000000000000, 1.000000000000000000 ) ) ;
#152 = DIRECTION ( 'NONE',  ( 3.491481338843133000E-015, 0.0000000000000000000, -1.000000000000000000 ) ) ;
#153 = CARTESIAN_POINT ( 'NONE',  ( 0.0000000000000000000, -0.8249999999999999600, 0.0000000000000000000 ) ) ;
#154 = AXIS2_PLACEMENT_3D ( 'NONE', #150, #21, #133 ) ;
#155 = ORIENTED_EDGE ( 'NONE', *, *, #15, .F. ) ;
#156 = ORIENTED_EDGE ( 'NONE', *, *, #66, .F. ) ;
#157 = CC_DESIGN_PERSON_AND_ORGANIZATION_ASSIGNMENT ( #190, #2, ( #146 ) ) ;
#158 = CLOSED_SHELL ( 'NONE', ( #95, #111, #37, #19, #177 ) ) ;
#159 = EDGE_CURVE ( 'NONE', #104, #48, #14, .T. ) ;
#160 = EDGE_LOOP ( 'NONE', ( #23, #100, #47, #156 ) ) ;
#161 = AXIS2_PLACEMENT_3D ( 'NONE', #179, #204, #60 ) ;
#162 = APPROVAL_STATUS ( 'not_yet_approved' ) ;
#163 = DIRECTION ( 'NONE',  ( 0.0000000000000000000, 0.0000000000000000000, 1.000000000000000000 ) ) ;
#164 = CARTESIAN_POINT ( 'NONE',  ( -2.618611004132350000E-015, -0.8249999999999999600, 0.7500000000000001100 ) ) ;
#165 = CALENDAR_DATE ( 2017, 12, 1 ) ;
#166 = DIRECTION ( 'NONE',  ( -1.000000000000000000, 0.0000000000000000000, 0.0000000000000000000 ) ) ;
#167 = CC_DESIGN_DATE_AND_TIME_ASSIGNMENT ( #124, #106, ( #146 ) ) ;
#168 = COORDINATED_UNIVERSAL_TIME_OFFSET ( 8, 0, .BEHIND. ) ;
#169 = ORIENTED_EDGE ( 'NONE', *, *, #81, .T. ) ;
#170 = AXIS2_PLACEMENT_3D ( 'NONE', #202, #188, #75 ) ;
#171 = LOCAL_TIME ( 8, 29, 38.00000000000000000, #168 ) ;
#172 = CIRCLE ( 'NONE', #170, 0.7500000000000001100 ) ;
#173 = PERSON_AND_ORGANIZATION_ROLE ( 'creator' ) ;
#174 = APPROVAL ( #197, 'UNSPECIFIED' ) ;
#175 = APPROVAL_PERSON_ORGANIZATION ( #181, #123, #72 ) ;
#176 = CARTESIAN_POINT ( 'NONE',  ( 0.0000000000000000000, -0.8249999999999999600, 0.0000000000000000000 ) ) ;
#177 = ADVANCED_FACE ( 'NONE', ( #184 ), #94, .T. ) ;
#178 = VECTOR ( 'NONE', #203, 39.37007874015748100 ) ;
#179 = CARTESIAN_POINT ( 'NONE',  ( -1.763780471432495500E-031, -0.8250000000000000700, 5.051668046482832500E-017 ) ) ;
#180 = DIRECTION ( 'NONE',  ( 0.0000000000000000000, 0.0000000000000000000, 1.000000000000000000 ) ) ;
#181 = PERSON_AND_ORGANIZATION ( #65, #186 ) ;
#182 = SHAPE_DEFINITION_REPRESENTATION ( #63, #138 ) ;
#183 = CC_DESIGN_APPROVAL ( #174, ( #146 ) ) ;
#184 = FACE_OUTER_BOUND ( 'NONE', #18, .T. ) ;
#185 = APPROVAL_STATUS ( 'not_yet_approved' ) ;
#186 = ORGANIZATION ( 'UNSPECIFIED', 'UNSPECIFIED', '' ) ;
#187 =( NAMED_UNIT ( * ) PLANE_ANGLE_UNIT ( ) SI_UNIT ( $, .RADIAN. ) );
#188 = DIRECTION ( 'NONE',  ( 1.000000000000000000, 0.0000000000000000000, 3.491481338843133400E-015 ) ) ;
#189 = DIRECTION ( 'NONE',  ( -0.0000000000000000000, -0.0000000000000000000, -1.000000000000000000 ) ) ;
#190 = PERSON_AND_ORGANIZATION ( #65, #186 ) ;
#191 = CC_DESIGN_SECURITY_CLASSIFICATION ( #146, ( #84 ) ) ;
#192 = VECTOR ( 'NONE', #134, 39.37007874015748100 ) ;
#193 = PERSON_AND_ORGANIZATION ( #65, #186 ) ;
#194 = AXIS2_PLACEMENT_3D ( 'NONE', #41, #113, #58 ) ;
#195 = VERTEX_POINT ( 'NONE', #74 ) ;
#196 = PERSON_AND_ORGANIZATION ( #65, #186 ) ;
#197 = APPROVAL_STATUS ( 'not_yet_approved' ) ;
#198 = PRODUCT_RELATED_PRODUCT_CATEGORY ( 'detail', '', ( #83 ) ) ;
#199 =( LENGTH_UNIT ( ) NAMED_UNIT ( * ) SI_UNIT ( $, .METRE. ) );
#200 = CARTESIAN_POINT ( 'NONE',  ( 5.051668046482832500E-017, -0.8250000000000000700, 0.0000000000000000000 ) ) ;
#201 = ORIENTED_EDGE ( 'NONE', *, *, #28, .T. ) ;
#202 = CARTESIAN_POINT ( 'NONE',  ( -1.763780471432495500E-031, -0.8250000000000000700, 5.051668046482832500E-017 ) ) ;
#203 = DIRECTION ( 'NONE',  ( 1.000000000000000000, 0.0000000000000000000, 0.0000000000000000000 ) ) ;
#204 = DIRECTION ( 'NONE',  ( -1.000000000000000000, 0.0000000000000000000, -3.491481338843133000E-015 ) ) ;
#205 = DIRECTION ( 'NONE',  ( 0.0000000000000000000, 0.0000000000000000000, 1.000000000000000000 ) ) ;
#206 = DATE_AND_TIME ( #1, #9 ) ;
#207 = VERTEX_POINT ( 'NONE', #5 ) ;
#208 = DIMENSIONAL_EXPONENTS ( 1.000000000000000000, 0.0000000000000000000, 0.0000000000000000000, 0.0000000000000000000, 0.0000000000000000000, 0.0000000000000000000, 0.0000000000000000000 ) ;
#209 = AXIS2_PLACEMENT_3D ( 'NONE', #176, #57, #163 ) ;
#210 = EDGE_LOOP ( 'NONE', ( #201, #69, #144 ) ) ;
#211 = PERSON_AND_ORGANIZATION ( #65, #186 ) ;
#212 = APPROVAL_DATE_TIME ( #206, #99 ) ;
#213 = ORIENTED_EDGE ( 'NONE', *, *, #80, .T. ) ;
ENDSEC;
END-ISO-10303-21;
