ISO-10303-21;
HEADER;
FILE_DESCRIPTION (( 'STEP AP203' ),
    '1' );
FILE_NAME ('1in CORNER FILLER ,125 Alum.STEP',
    '2016-12-23T01:22:39',
    ( 'temp' ),
    ( '' ),
    'SwSTEP 2.0',
    'SolidWorks 2016',
    '' );
FILE_SCHEMA (( 'CONFIG_CONTROL_DESIGN' ));
ENDSEC;

DATA;
#1 = ORIENTED_EDGE ( 'NONE', *, *, #206, .T. ) ;
#2 = VECTOR ( 'NONE', #102, 39.37007874015748100 ) ;
#3 = ADVANCED_FACE ( 'NONE', ( #16 ), #117, .T. ) ;
#4 = DIRECTION ( 'NONE',  ( 3.491481338843133000E-015, 0.0000000000000000000, -1.000000000000000000 ) ) ;
#5 = EDGE_CURVE ( 'NONE', #50, #62, #60, .T. ) ;
#6 = LOCAL_TIME ( 17, 22, 39.00000000000000000, #26 ) ;
#7 = CARTESIAN_POINT ( 'NONE',  ( -2.405155188317039500E-031, -1.125000000000000000, 6.888638245203861900E-017 ) ) ;
#8 = APPLICATION_PROTOCOL_DEFINITION ( 'international standard', 'config_control_design', 1994, #201 ) ;
#9 = DIRECTION ( 'NONE',  ( 3.491481338843133400E-015, 0.0000000000000000000, -1.000000000000000000 ) ) ;
#10 = PRODUCT_DEFINITION_FORMATION_WITH_SPECIFIED_SOURCE ( 'ANY', '', #169, .NOT_KNOWN. ) ;
#11 = EDGE_LOOP ( 'NONE', ( #133, #80, #17 ) ) ;
#12 = CARTESIAN_POINT ( 'NONE',  ( -3.927916506198525800E-015, -1.124999999999999800, 1.125000000000000200 ) ) ;
#13 = EDGE_CURVE ( 'NONE', #35, #50, #34, .T. ) ;
#14 = CIRCLE ( 'NONE', #42, 1.125000000000000200 ) ;
#15 = ORGANIZATION ( 'UNSPECIFIED', 'UNSPECIFIED', '' ) ;
#16 = FACE_OUTER_BOUND ( 'NONE', #120, .T. ) ;
#17 = ORIENTED_EDGE ( 'NONE', *, *, #20, .F. ) ;
#18 = CC_DESIGN_PERSON_AND_ORGANIZATION_ASSIGNMENT ( #197, #162, ( #169 ) ) ;
#19 = PERSON_AND_ORGANIZATION ( #48, #15 ) ;
#20 = EDGE_CURVE ( 'NONE', #27, #35, #53, .T. ) ;
#21 = APPROVAL_PERSON_ORGANIZATION ( #157, #189, #132 ) ;
#22 = DIRECTION ( 'NONE',  ( 2.567660026879928600E-030, -1.000000000000000000, -7.354070601250002300E-016 ) ) ;
#23 = CALENDAR_DATE ( 2016, 22, 12 ) ;
#24 = DIRECTION ( 'NONE',  ( -0.0000000000000000000, 1.000000000000000000, 0.0000000000000000000 ) ) ;
#25 = ADVANCED_FACE ( 'NONE', ( #136 ), #86, .F. ) ;
#26 = COORDINATED_UNIVERSAL_TIME_OFFSET ( 8, 0, .BEHIND. ) ;
#27 = VERTEX_POINT ( 'NONE', #76 ) ;
#28 = APPROVAL_ROLE ( '' ) ;
#29 = PLANE ( 'NONE',  #63 ) ;
#30 = DATE_AND_TIME ( #23, #72 ) ;
#31 = AXIS2_PLACEMENT_3D ( 'NONE', #192, #154, #9 ) ;
#32 = DIRECTION ( 'NONE',  ( -1.000000000000000000, 0.0000000000000000000, 0.0000000000000000000 ) ) ;
#33 = CARTESIAN_POINT ( 'NONE',  ( -3.491481338843133700E-015, -1.124999999999999800, 1.000000000000000200 ) ) ;
#34 = LINE ( 'NONE', #103, #114 ) ;
#35 = VERTEX_POINT ( 'NONE', #148 ) ;
#36 = LINE ( 'NONE', #165, #140 ) ;
#37 = DIMENSIONAL_EXPONENTS ( 1.000000000000000000, 0.0000000000000000000, 0.0000000000000000000, 0.0000000000000000000, 0.0000000000000000000, 0.0000000000000000000, 0.0000000000000000000 ) ;
#38 = CC_DESIGN_DATE_AND_TIME_ASSIGNMENT ( #43, #66, ( #182 ) ) ;
#39 = DESIGN_CONTEXT ( 'detailed design', #151, 'design' ) ;
#40 = DIRECTION ( 'NONE',  ( -0.0000000000000000000, 1.000000000000000000, -0.0000000000000000000 ) ) ;
#41 = EDGE_CURVE ( 'NONE', #27, #164, #49, .T. ) ;
#42 = AXIS2_PLACEMENT_3D ( 'NONE', #64, #40, #71 ) ;
#43 = DATE_AND_TIME ( #110, #95 ) ;
#44 = ADVANCED_FACE ( 'NONE', ( #57 ), #81, .T. ) ;
#45 = APPROVAL ( #146, 'UNSPECIFIED' ) ;
#46 = ORIENTED_EDGE ( 'NONE', *, *, #13, .T. ) ;
#47 = EDGE_LOOP ( 'NONE', ( #211, #145, #210 ) ) ;
#48 = PERSON ( 'UNSPECIFIED', 'UNSPECIFIED', 'UNSPECIFIED', ('UNSPECIFIED'), ('UNSPECIFIED'), ('UNSPECIFIED') ) ;
#49 = CIRCLE ( 'NONE', #77, 1.000000000000000000 ) ;
#50 = VERTEX_POINT ( 'NONE', #12 ) ;
#51 = DIRECTION ( 'NONE',  ( 3.491481338843133400E-015, 0.0000000000000000000, -1.000000000000000000 ) ) ;
#52 = CALENDAR_DATE ( 2016, 22, 12 ) ;
#53 = CIRCLE ( 'NONE', #31, 1.000000000000000000 ) ;
#54 = PLANE ( 'NONE',  #115 ) ;
#55 = SECURITY_CLASSIFICATION_LEVEL ( 'unclassified' ) ;
#56 = CARTESIAN_POINT ( 'NONE',  ( -2.405155188317039500E-031, -1.125000000000000000, 6.888638245203861900E-017 ) ) ;
#57 = FACE_OUTER_BOUND ( 'NONE', #47, .T. ) ;
#58 = PERSON_AND_ORGANIZATION ( #48, #15 ) ;
#59 = DIRECTION ( 'NONE',  ( -1.000000000000000000, 0.0000000000000000000, 0.0000000000000000000 ) ) ;
#60 = CIRCLE ( 'NONE', #183, 1.125000000000000000 ) ;
#61 = ORIENTED_EDGE ( 'NONE', *, *, #91, .F. ) ;
#62 = VERTEX_POINT ( 'NONE', #119 ) ;
#63 = AXIS2_PLACEMENT_3D ( 'NONE', #33, #24, #213 ) ;
#64 = CARTESIAN_POINT ( 'NONE',  ( 0.0000000000000000000, -1.124999999999999800, 0.0000000000000000000 ) ) ;
#65 = APPROVAL_DATE_TIME ( #179, #45 ) ;
#66 = DATE_TIME_ROLE ( 'creation_date' ) ;
#67 = DIRECTION ( 'NONE',  ( 0.0000000000000000000, 0.0000000000000000000, 1.000000000000000000 ) ) ;
#68 = DIRECTION ( 'NONE',  ( 3.491481338843133400E-015, 0.0000000000000000000, -1.000000000000000000 ) ) ;
#69 = CC_DESIGN_PERSON_AND_ORGANIZATION_ASSIGNMENT ( #58, #190, ( #182 ) ) ;
#70 = DIRECTION ( 'NONE',  ( 1.000000000000000000, 0.0000000000000000000, 0.0000000000000000000 ) ) ;
#71 = DIRECTION ( 'NONE',  ( 0.0000000000000000000, 0.0000000000000000000, 1.000000000000000000 ) ) ;
#72 = LOCAL_TIME ( 17, 22, 39.00000000000000000, #193 ) ;
#73 = ORIENTED_EDGE ( 'NONE', *, *, #20, .T. ) ;
#74 = PERSON_AND_ORGANIZATION ( #48, #15 ) ;
#75 = ORIENTED_EDGE ( 'NONE', *, *, #134, .F. ) ;
#76 = CARTESIAN_POINT ( 'NONE',  ( 3.209575033599911600E-031, -0.1250000000000000300, -9.192588251562505300E-017 ) ) ;
#77 = AXIS2_PLACEMENT_3D ( 'NONE', #200, #108, #174 ) ;
#78 = DIRECTION ( 'NONE',  ( -1.000000000000000000, 0.0000000000000000000, -3.491481338843133400E-015 ) ) ;
#79 = LINE ( 'NONE', #112, #2 ) ;
#80 = ORIENTED_EDGE ( 'NONE', *, *, #206, .F. ) ;
#81 = SPHERICAL_SURFACE ( 'NONE', #158, 1.125000000000000000 ) ;
#82 = AXIS2_PLACEMENT_3D ( 'NONE', #163, #181, #153 ) ;
#83 = APPROVAL ( #187, 'UNSPECIFIED' ) ;
#84 = SECURITY_CLASSIFICATION ( '', '', #55 ) ;
#85 = PERSON_AND_ORGANIZATION_ROLE ( 'creator' ) ;
#86 = SPHERICAL_SURFACE ( 'NONE', #89, 1.000000000000000000 ) ;
#87 = VERTEX_POINT ( 'NONE', #176 ) ;
#88 = CARTESIAN_POINT ( 'NONE',  ( 6.888638245203861900E-017, -1.125000000000000000, 0.0000000000000000000 ) ) ;
#89 = AXIS2_PLACEMENT_3D ( 'NONE', #170, #78, #51 ) ;
#90 = SHAPE_DEFINITION_REPRESENTATION ( #128, #116 ) ;
#91 = EDGE_CURVE ( 'NONE', #62, #27, #36, .T. ) ;
#92 = CC_DESIGN_SECURITY_CLASSIFICATION ( #84, ( #10 ) ) ;
#93 =( NAMED_UNIT ( * ) SI_UNIT ( $, .STERADIAN. ) SOLID_ANGLE_UNIT ( ) );
#94 = MECHANICAL_CONTEXT ( 'NONE', #201, 'mechanical' ) ;
#95 = LOCAL_TIME ( 17, 22, 39.00000000000000000, #138 ) ;
#96 = CARTESIAN_POINT ( 'NONE',  ( 0.0000000000000000000, 0.0000000000000000000, 0.0000000000000000000 ) ) ;
#97 =( LENGTH_UNIT ( ) NAMED_UNIT ( * ) SI_UNIT ( $, .METRE. ) );
#98 = FACE_OUTER_BOUND ( 'NONE', #205, .T. ) ;
#99 = CC_DESIGN_APPROVAL ( #45, ( #10 ) ) ;
#100 = DIRECTION ( 'NONE',  ( -3.491481338843133000E-015, 0.0000000000000000000, 1.000000000000000000 ) ) ;
#101 = APPROVAL_PERSON_ORGANIZATION ( #191, #83, #28 ) ;
#102 = DIRECTION ( 'NONE',  ( 1.000000000000000000, 0.0000000000000000000, 0.0000000000000000000 ) ) ;
#103 = CARTESIAN_POINT ( 'NONE',  ( -3.491481338843133700E-015, -1.124999999999999800, 1.000000000000000200 ) ) ;
#104 = EDGE_CURVE ( 'NONE', #164, #87, #79, .T. ) ;
#105 =( GEOMETRIC_REPRESENTATION_CONTEXT ( 3 ) GLOBAL_UNCERTAINTY_ASSIGNED_CONTEXT ( ( #139 ) ) GLOBAL_UNIT_ASSIGNED_CONTEXT ( ( #159, #209, #93 ) ) REPRESENTATION_CONTEXT ( 'NONE', 'WORKASPACE' ) );
#106 = CC_DESIGN_APPROVAL ( #189, ( #182 ) ) ;
#107 = LOCAL_TIME ( 17, 22, 39.00000000000000000, #161 ) ;
#108 = DIRECTION ( 'NONE',  ( -0.0000000000000000000, -0.0000000000000000000, -1.000000000000000000 ) ) ;
#109 = CARTESIAN_POINT ( 'NONE',  ( -2.405155188317039500E-031, -1.125000000000000000, 6.888638245203861900E-017 ) ) ;
#110 = CALENDAR_DATE ( 2016, 22, 12 ) ;
#111 = CLOSED_SHELL ( 'NONE', ( #44, #152, #25, #184, #3 ) ) ;
#112 = CARTESIAN_POINT ( 'NONE',  ( 1.000000000000000200, -1.124999999999999800, 0.0000000000000000000 ) ) ;
#113 = CC_DESIGN_PERSON_AND_ORGANIZATION_ASSIGNMENT ( #19, #175, ( #84 ) ) ;
#114 = VECTOR ( 'NONE', #100, 39.37007874015748100 ) ;
#115 = AXIS2_PLACEMENT_3D ( 'NONE', #56, #125, #4 ) ;
#116 = ADVANCED_BREP_SHAPE_REPRESENTATION ( '1in CORNER FILLER ,125 Alum', ( #204, #166 ), #105 ) ;
#117 = PLANE ( 'NONE',  #195 ) ;
#118 = DIRECTION ( 'NONE',  ( -3.491481338843133700E-015, 0.0000000000000000000, 1.000000000000000000 ) ) ;
#119 = CARTESIAN_POINT ( 'NONE',  ( 0.0000000000000000000, 0.0000000000000000000, 0.0000000000000000000 ) ) ;
#120 = EDGE_LOOP ( 'NONE', ( #75, #123, #141, #61 ) ) ;
#121 = APPROVAL_STATUS ( 'not_yet_approved' ) ;
#122 = CALENDAR_DATE ( 2016, 22, 12 ) ;
#123 = ORIENTED_EDGE ( 'NONE', *, *, #104, .F. ) ;
#124 = PERSON_AND_ORGANIZATION ( #48, #15 ) ;
#125 = DIRECTION ( 'NONE',  ( 1.000000000000000000, 0.0000000000000000000, 3.491481338843133000E-015 ) ) ;
#126 = AXIS2_PLACEMENT_3D ( 'NONE', #88, #67, #59 ) ;
#127 = ORIENTED_EDGE ( 'NONE', *, *, #91, .T. ) ;
#128 = PRODUCT_DEFINITION_SHAPE ( 'NONE', 'NONE',  #182 ) ;
#129 = DIRECTION ( 'NONE',  ( -1.000000000000000000, 0.0000000000000000000, -3.491481338843133400E-015 ) ) ;
#130 = DIRECTION ( 'NONE',  ( -0.0000000000000000000, 0.0000000000000000000, -1.000000000000000000 ) ) ;
#131 = PERSON_AND_ORGANIZATION_ROLE ( 'design_supplier' ) ;
#132 = APPROVAL_ROLE ( '' ) ;
#133 = ORIENTED_EDGE ( 'NONE', *, *, #41, .T. ) ;
#134 = EDGE_CURVE ( 'NONE', #87, #62, #185, .T. ) ;
#135 = APPROVAL_ROLE ( '' ) ;
#136 = FACE_OUTER_BOUND ( 'NONE', #11, .T. ) ;
#137 = CARTESIAN_POINT ( 'NONE',  ( 1.000000000000000200, -1.124999999999999800, 0.0000000000000000000 ) ) ;
#138 = COORDINATED_UNIVERSAL_TIME_OFFSET ( 8, 0, .BEHIND. ) ;
#139 = UNCERTAINTY_MEASURE_WITH_UNIT (LENGTH_MEASURE( 1.000000000000000100E-005 ), #159, 'distance_accuracy_value', 'NONE');
#140 = VECTOR ( 'NONE', #22, 39.37007874015748100 ) ;
#141 = ORIENTED_EDGE ( 'NONE', *, *, #41, .F. ) ;
#142 = PRODUCT_RELATED_PRODUCT_CATEGORY ( 'detail', '', ( #169 ) ) ;
#143 = PERSON_AND_ORGANIZATION ( #48, #15 ) ;
#144 = ORIENTED_EDGE ( 'NONE', *, *, #13, .F. ) ;
#145 = ORIENTED_EDGE ( 'NONE', *, *, #134, .T. ) ;
#146 = APPROVAL_STATUS ( 'not_yet_approved' ) ;
#147 = CARTESIAN_POINT ( 'NONE',  ( 6.888638245203861900E-017, -1.125000000000000000, 0.0000000000000000000 ) ) ;
#148 = CARTESIAN_POINT ( 'NONE',  ( -3.491481338843133700E-015, -1.124999999999999800, 1.000000000000000200 ) ) ;
#149 = CIRCLE ( 'NONE', #82, 1.000000000000000200 ) ;
#150 = DIRECTION ( 'NONE',  ( 1.000000000000000000, 0.0000000000000000000, 3.491481338843133700E-015 ) ) ;
#151 = APPLICATION_CONTEXT ( 'configuration controlled 3d designs of mechanical parts and assemblies' ) ;
#152 = ADVANCED_FACE ( 'NONE', ( #98 ), #29, .F. ) ;
#153 = DIRECTION ( 'NONE',  ( 0.0000000000000000000, 0.0000000000000000000, 1.000000000000000000 ) ) ;
#154 = DIRECTION ( 'NONE',  ( 1.000000000000000000, 0.0000000000000000000, 3.491481338843133400E-015 ) ) ;
#155 = EDGE_CURVE ( 'NONE', #50, #87, #14, .T. ) ;
#156 = DATE_AND_TIME ( #52, #107 ) ;
#157 = PERSON_AND_ORGANIZATION ( #48, #15 ) ;
#158 = AXIS2_PLACEMENT_3D ( 'NONE', #7, #150, #118 ) ;
#159 =( CONVERSION_BASED_UNIT ( 'INCH', #202 ) LENGTH_UNIT ( ) NAMED_UNIT ( #37 ) );
#160 = ORIENTED_EDGE ( 'NONE', *, *, #104, .T. ) ;
#161 = COORDINATED_UNIVERSAL_TIME_OFFSET ( 8, 0, .BEHIND. ) ;
#162 = PERSON_AND_ORGANIZATION_ROLE ( 'design_owner' ) ;
#163 = CARTESIAN_POINT ( 'NONE',  ( 0.0000000000000000000, -1.124999999999999800, 0.0000000000000000000 ) ) ;
#164 = VERTEX_POINT ( 'NONE', #137 ) ;
#165 = CARTESIAN_POINT ( 'NONE',  ( 0.0000000000000000000, 0.0000000000000000000, 0.0000000000000000000 ) ) ;
#166 = AXIS2_PLACEMENT_3D ( 'NONE', #96, #196, #70 ) ;
#167 = DATE_TIME_ROLE ( 'classification_date' ) ;
#168 = CC_DESIGN_PERSON_AND_ORGANIZATION_ASSIGNMENT ( #143, #131, ( #10 ) ) ;
#169 = PRODUCT ( '1in CORNER FILLER ,125 Alum', '1in CORNER FILLER ,125 Alum', '', ( #94 ) ) ;
#170 = CARTESIAN_POINT ( 'NONE',  ( -2.405155188317039500E-031, -1.125000000000000000, 6.888638245203861900E-017 ) ) ;
#171 = APPROVAL_PERSON_ORGANIZATION ( #74, #45, #135 ) ;
#172 = ORIENTED_EDGE ( 'NONE', *, *, #5, .T. ) ;
#173 = DATE_AND_TIME ( #122, #6 ) ;
#174 = DIRECTION ( 'NONE',  ( -1.000000000000000000, 0.0000000000000000000, 0.0000000000000000000 ) ) ;
#175 = PERSON_AND_ORGANIZATION_ROLE ( 'classification_officer' ) ;
#176 = CARTESIAN_POINT ( 'NONE',  ( 1.125000000000000200, -1.124999999999999800, 0.0000000000000000000 ) ) ;
#177 = EDGE_LOOP ( 'NONE', ( #172, #127, #73, #46 ) ) ;
#178 = APPROVAL_DATE_TIME ( #156, #189 ) ;
#179 = DATE_AND_TIME ( #188, #194 ) ;
#180 = ORIENTED_EDGE ( 'NONE', *, *, #155, .F. ) ;
#181 = DIRECTION ( 'NONE',  ( -0.0000000000000000000, 1.000000000000000000, -0.0000000000000000000 ) ) ;
#182 = PRODUCT_DEFINITION ( 'UNKNOWN', '', #10, #39 ) ;
#183 = AXIS2_PLACEMENT_3D ( 'NONE', #109, #129, #68 ) ;
#184 = ADVANCED_FACE ( 'NONE', ( #212 ), #54, .F. ) ;
#185 = CIRCLE ( 'NONE', #126, 1.125000000000000000 ) ;
#186 = APPROVAL_DATE_TIME ( #173, #83 ) ;
#187 = APPROVAL_STATUS ( 'not_yet_approved' ) ;
#188 = CALENDAR_DATE ( 2016, 22, 12 ) ;
#189 = APPROVAL ( #121, 'UNSPECIFIED' ) ;
#190 = PERSON_AND_ORGANIZATION_ROLE ( 'creator' ) ;
#191 = PERSON_AND_ORGANIZATION ( #48, #15 ) ;
#192 = CARTESIAN_POINT ( 'NONE',  ( -2.405155188317039500E-031, -1.125000000000000000, 6.888638245203861900E-017 ) ) ;
#193 = COORDINATED_UNIVERSAL_TIME_OFFSET ( 8, 0, .BEHIND. ) ;
#194 = LOCAL_TIME ( 17, 22, 39.00000000000000000, #198 ) ;
#195 = AXIS2_PLACEMENT_3D ( 'NONE', #147, #130, #32 ) ;
#196 = DIRECTION ( 'NONE',  ( 0.0000000000000000000, 0.0000000000000000000, 1.000000000000000000 ) ) ;
#197 = PERSON_AND_ORGANIZATION ( #48, #15 ) ;
#198 = COORDINATED_UNIVERSAL_TIME_OFFSET ( 8, 0, .BEHIND. ) ;
#199 = CC_DESIGN_APPROVAL ( #83, ( #84 ) ) ;
#200 = CARTESIAN_POINT ( 'NONE',  ( 6.888638245203861900E-017, -1.125000000000000000, 0.0000000000000000000 ) ) ;
#201 = APPLICATION_CONTEXT ( 'configuration controlled 3d designs of mechanical parts and assemblies' ) ;
#202 = LENGTH_MEASURE_WITH_UNIT ( LENGTH_MEASURE( 0.02539999999999999900 ), #97 );
#203 = CC_DESIGN_PERSON_AND_ORGANIZATION_ASSIGNMENT ( #124, #85, ( #10 ) ) ;
#204 = MANIFOLD_SOLID_BREP ( 'Revolve1', #111 ) ;
#205 = EDGE_LOOP ( 'NONE', ( #1, #160, #180, #144 ) ) ;
#206 = EDGE_CURVE ( 'NONE', #35, #164, #149, .T. ) ;
#207 = CC_DESIGN_DATE_AND_TIME_ASSIGNMENT ( #30, #167, ( #84 ) ) ;
#208 = APPLICATION_PROTOCOL_DEFINITION ( 'international standard', 'config_control_design', 1994, #151 ) ;
#209 =( NAMED_UNIT ( * ) PLANE_ANGLE_UNIT ( ) SI_UNIT ( $, .RADIAN. ) );
#210 = ORIENTED_EDGE ( 'NONE', *, *, #5, .F. ) ;
#211 = ORIENTED_EDGE ( 'NONE', *, *, #155, .T. ) ;
#212 = FACE_OUTER_BOUND ( 'NONE', #177, .T. ) ;
#213 = DIRECTION ( 'NONE',  ( 0.0000000000000000000, 0.0000000000000000000, 1.000000000000000000 ) ) ;
ENDSEC;
END-ISO-10303-21;
