ISO-10303-21;
HEADER;
FILE_DESCRIPTION (( 'STEP AP203' ),
    '1' );
FILE_NAME ('3_4in CORNER FILLER 13 Ga.STEP',
    '2016-12-23T01:08:55',
    ( 'temp' ),
    ( '' ),
    'SwSTEP 2.0',
    'SolidWorks 2016',
    '' );
FILE_SCHEMA (( 'CONFIG_CONTROL_DESIGN' ));
ENDSEC;

DATA;
#1 = DIRECTION ( 'NONE',  ( 0.0000000000000000000, 0.0000000000000000000, 1.000000000000000000 ) ) ;
#2 = EDGE_LOOP ( 'NONE', ( #207, #137, #92 ) ) ;
#3 = ORIENTED_EDGE ( 'NONE', *, *, #74, .T. ) ;
#4 = PERSON_AND_ORGANIZATION ( #140, #95 ) ;
#5 = CC_DESIGN_SECURITY_CLASSIFICATION ( #58, ( #213 ) ) ;
#6 = DIRECTION ( 'NONE',  ( -0.0000000000000000000, -0.0000000000000000000, -1.000000000000000000 ) ) ;
#7 = DIRECTION ( 'NONE',  ( -3.491481338843133000E-015, 0.0000000000000000000, 1.000000000000000000 ) ) ;
#8 = PERSON_AND_ORGANIZATION ( #140, #95 ) ;
#9 = DIRECTION ( 'NONE',  ( -1.000000000000000000, 0.0000000000000000000, 0.0000000000000000000 ) ) ;
#10 = PLANE ( 'NONE',  #11 ) ;
#11 = AXIS2_PLACEMENT_3D ( 'NONE', #195, #147, #108 ) ;
#12 = CIRCLE ( 'NONE', #78, 0.7500000000000001100 ) ;
#13 = LINE ( 'NONE', #67, #126 ) ;
#14 = DIRECTION ( 'NONE',  ( -1.000000000000000000, 0.0000000000000000000, -3.491481338843133000E-015 ) ) ;
#15 = AXIS2_PLACEMENT_3D ( 'NONE', #60, #125, #187 ) ;
#16 = DIRECTION ( 'NONE',  ( 3.491481338843133000E-015, 0.0000000000000000000, -1.000000000000000000 ) ) ;
#17 = APPROVAL_DATE_TIME ( #181, #150 ) ;
#18 = PERSON_AND_ORGANIZATION_ROLE ( 'design_supplier' ) ;
#19 = CALENDAR_DATE ( 2016, 22, 12 ) ;
#20 = FACE_OUTER_BOUND ( 'NONE', #102, .T. ) ;
#21 = ORIENTED_EDGE ( 'NONE', *, *, #200, .T. ) ;
#22 = APPROVAL_DATE_TIME ( #42, #84 ) ;
#23 = FACE_OUTER_BOUND ( 'NONE', #2, .T. ) ;
#24 = VERTEX_POINT ( 'NONE', #179 ) ;
#25 = LOCAL_TIME ( 17, 8, 55.00000000000000000, #76 ) ;
#26 =( GEOMETRIC_REPRESENTATION_CONTEXT ( 3 ) GLOBAL_UNCERTAINTY_ASSIGNED_CONTEXT ( ( #208 ) ) GLOBAL_UNIT_ASSIGNED_CONTEXT ( ( #79, #94, #75 ) ) REPRESENTATION_CONTEXT ( 'NONE', 'WORKASPACE' ) );
#27 = MECHANICAL_CONTEXT ( 'NONE', #169, 'mechanical' ) ;
#28 = DIRECTION ( 'NONE',  ( 3.491481338843133000E-015, 0.0000000000000000000, -1.000000000000000000 ) ) ;
#29 = COORDINATED_UNIVERSAL_TIME_OFFSET ( 8, 0, .BEHIND. ) ;
#30 = DIRECTION ( 'NONE',  ( 2.683553843512211900E-030, -1.000000000000000000, -7.686003684617658400E-016 ) ) ;
#31 = DATE_AND_TIME ( #210, #48 ) ;
#32 = DATE_TIME_ROLE ( 'classification_date' ) ;
#33 = EDGE_CURVE ( 'NONE', #124, #86, #46, .T. ) ;
#34 = CARTESIAN_POINT ( 'NONE',  ( -1.795849207276722800E-031, -0.8400000000000000800, 5.143516556418884400E-017 ) ) ;
#35 = COORDINATED_UNIVERSAL_TIME_OFFSET ( 8, 0, .BEHIND. ) ;
#36 = CARTESIAN_POINT ( 'NONE',  ( 0.0000000000000000000, 0.0000000000000000000, 0.0000000000000000000 ) ) ;
#37 = ADVANCED_FACE ( 'NONE', ( #64 ), #190, .T. ) ;
#38 = AXIS2_PLACEMENT_3D ( 'NONE', #34, #47, #107 ) ;
#39 = ORIENTED_EDGE ( 'NONE', *, *, #117, .F. ) ;
#40 = ORIENTED_EDGE ( 'NONE', *, *, #206, .F. ) ;
#41 = APPROVAL_ROLE ( '' ) ;
#42 = DATE_AND_TIME ( #19, #121 ) ;
#43 = PRODUCT_DEFINITION ( 'UNKNOWN', '', #213, #211 ) ;
#44 = LENGTH_MEASURE_WITH_UNIT ( LENGTH_MEASURE( 0.02539999999999999900 ), #119 );
#45 = VECTOR ( 'NONE', #93, 39.37007874015748100 ) ;
#46 = CIRCLE ( 'NONE', #15, 0.7500000000000001100 ) ;
#47 = DIRECTION ( 'NONE',  ( -1.000000000000000000, 0.0000000000000000000, -3.491481338843133400E-015 ) ) ;
#48 = LOCAL_TIME ( 17, 8, 55.00000000000000000, #82 ) ;
#49 = CARTESIAN_POINT ( 'NONE',  ( 0.0000000000000000000, -0.8399999999999999700, 0.0000000000000000000 ) ) ;
#50 = AXIS2_PLACEMENT_3D ( 'NONE', #69, #6, #9 ) ;
#51 = CIRCLE ( 'NONE', #50, 0.7500000000000001100 ) ;
#52 = VERTEX_POINT ( 'NONE', #54 ) ;
#53 = APPROVAL_PERSON_ORGANIZATION ( #164, #150, #41 ) ;
#54 = CARTESIAN_POINT ( 'NONE',  ( -2.932844324628232100E-015, -0.8399999999999999700, 0.8400000000000000800 ) ) ;
#55 = LOCAL_TIME ( 17, 8, 55.00000000000000000, #175 ) ;
#56 = ORIENTED_EDGE ( 'NONE', *, *, #106, .T. ) ;
#57 = CC_DESIGN_PERSON_AND_ORGANIZATION_ASSIGNMENT ( #191, #152, ( #156 ) ) ;
#58 = SECURITY_CLASSIFICATION ( '', '', #161 ) ;
#59 = LINE ( 'NONE', #141, #45 ) ;
#60 = CARTESIAN_POINT ( 'NONE',  ( 0.0000000000000000000, -0.8399999999999999700, 0.0000000000000000000 ) ) ;
#61 = AXIS2_PLACEMENT_3D ( 'NONE', #166, #197, #115 ) ;
#62 = CARTESIAN_POINT ( 'NONE',  ( 0.7500000000000001100, -0.8399999999999999700, 0.0000000000000000000 ) ) ;
#63 = LOCAL_TIME ( 17, 8, 55.00000000000000000, #35 ) ;
#64 = FACE_OUTER_BOUND ( 'NONE', #186, .T. ) ;
#65 = EDGE_CURVE ( 'NONE', #113, #124, #12, .T. ) ;
#66 = AXIS2_PLACEMENT_3D ( 'NONE', #112, #97, #73 ) ;
#67 = CARTESIAN_POINT ( 'NONE',  ( -2.618611004132350000E-015, -0.8399999999999999700, 0.7500000000000001100 ) ) ;
#68 = ORIENTED_EDGE ( 'NONE', *, *, #65, .T. ) ;
#69 = CARTESIAN_POINT ( 'NONE',  ( 5.143516556418884400E-017, -0.8400000000000000800, 0.0000000000000000000 ) ) ;
#70 = ADVANCED_FACE ( 'NONE', ( #139 ), #203, .T. ) ;
#71 = CC_DESIGN_PERSON_AND_ORGANIZATION_ASSIGNMENT ( #204, #77, ( #43 ) ) ;
#72 = CC_DESIGN_PERSON_AND_ORGANIZATION_ASSIGNMENT ( #145, #18, ( #213 ) ) ;
#73 = DIRECTION ( 'NONE',  ( -3.491481338843133400E-015, 0.0000000000000000000, 1.000000000000000000 ) ) ;
#74 = EDGE_CURVE ( 'NONE', #86, #24, #59, .T. ) ;
#75 =( NAMED_UNIT ( * ) SI_UNIT ( $, .STERADIAN. ) SOLID_ANGLE_UNIT ( ) );
#76 = COORDINATED_UNIVERSAL_TIME_OFFSET ( 8, 0, .BEHIND. ) ;
#77 = PERSON_AND_ORGANIZATION_ROLE ( 'creator' ) ;
#78 = AXIS2_PLACEMENT_3D ( 'NONE', #172, #158, #28 ) ;
#79 =( CONVERSION_BASED_UNIT ( 'INCH', #44 ) LENGTH_UNIT ( ) NAMED_UNIT ( #133 ) );
#80 = DIRECTION ( 'NONE',  ( 3.491481338843133000E-015, 0.0000000000000000000, -1.000000000000000000 ) ) ;
#81 = CC_DESIGN_APPROVAL ( #135, ( #43 ) ) ;
#82 = COORDINATED_UNIVERSAL_TIME_OFFSET ( 8, 0, .BEHIND. ) ;
#83 = APPROVAL_STATUS ( 'not_yet_approved' ) ;
#84 = APPROVAL ( #176, 'UNSPECIFIED' ) ;
#85 = DATE_TIME_ROLE ( 'creation_date' ) ;
#86 = VERTEX_POINT ( 'NONE', #62 ) ;
#87 = DATE_AND_TIME ( #194, #55 ) ;
#88 = DIRECTION ( 'NONE',  ( -0.0000000000000000000, 1.000000000000000000, -0.0000000000000000000 ) ) ;
#89 = ORIENTED_EDGE ( 'NONE', *, *, #173, .F. ) ;
#90 = ADVANCED_BREP_SHAPE_REPRESENTATION ( '3_4in CORNER FILLER 13 Ga', ( #168, #61 ), #26 ) ;
#91 = CC_DESIGN_APPROVAL ( #84, ( #213 ) ) ;
#92 = ORIENTED_EDGE ( 'NONE', *, *, #65, .F. ) ;
#93 = DIRECTION ( 'NONE',  ( 1.000000000000000000, 0.0000000000000000000, 0.0000000000000000000 ) ) ;
#94 =( NAMED_UNIT ( * ) PLANE_ANGLE_UNIT ( ) SI_UNIT ( $, .RADIAN. ) );
#95 = ORGANIZATION ( 'UNSPECIFIED', 'UNSPECIFIED', '' ) ;
#96 = ORIENTED_EDGE ( 'NONE', *, *, #206, .T. ) ;
#97 = DIRECTION ( 'NONE',  ( 1.000000000000000000, 0.0000000000000000000, 3.491481338843133400E-015 ) ) ;
#98 = CARTESIAN_POINT ( 'NONE',  ( -2.618611004132350000E-015, -0.8399999999999999700, 0.7500000000000001100 ) ) ;
#99 = AXIS2_PLACEMENT_3D ( 'NONE', #49, #88, #148 ) ;
#100 = VECTOR ( 'NONE', #30, 39.37007874015748100 ) ;
#101 = PRODUCT_DEFINITION_SHAPE ( 'NONE', 'NONE',  #43 ) ;
#102 = EDGE_LOOP ( 'NONE', ( #132, #56, #68, #157 ) ) ;
#103 = ORIENTED_EDGE ( 'NONE', *, *, #106, .F. ) ;
#104 = AXIS2_PLACEMENT_3D ( 'NONE', #111, #1, #155 ) ;
#105 = PERSON_AND_ORGANIZATION_ROLE ( 'creator' ) ;
#106 = EDGE_CURVE ( 'NONE', #151, #113, #165, .T. ) ;
#107 = DIRECTION ( 'NONE',  ( 3.491481338843133000E-015, 0.0000000000000000000, -1.000000000000000000 ) ) ;
#108 = DIRECTION ( 'NONE',  ( 0.0000000000000000000, 0.0000000000000000000, 1.000000000000000000 ) ) ;
#109 = APPROVAL_ROLE ( '' ) ;
#110 = PERSON_AND_ORGANIZATION ( #140, #95 ) ;
#111 = CARTESIAN_POINT ( 'NONE',  ( 5.143516556418884400E-017, -0.8400000000000000800, 0.0000000000000000000 ) ) ;
#112 = CARTESIAN_POINT ( 'NONE',  ( -1.795849207276722800E-031, -0.8400000000000000800, 5.143516556418884400E-017 ) ) ;
#113 = VERTEX_POINT ( 'NONE', #127 ) ;
#114 = ORIENTED_EDGE ( 'NONE', *, *, #185, .F. ) ;
#115 = DIRECTION ( 'NONE',  ( 1.000000000000000000, 0.0000000000000000000, 0.0000000000000000000 ) ) ;
#116 = CC_DESIGN_DATE_AND_TIME_ASSIGNMENT ( #192, #85, ( #43 ) ) ;
#117 = EDGE_CURVE ( 'NONE', #113, #86, #51, .T. ) ;
#118 = ORIENTED_EDGE ( 'NONE', *, *, #33, .T. ) ;
#119 =( LENGTH_UNIT ( ) NAMED_UNIT ( * ) SI_UNIT ( $, .METRE. ) );
#120 = APPLICATION_PROTOCOL_DEFINITION ( 'international standard', 'config_control_design', 1994, #149 ) ;
#121 = LOCAL_TIME ( 17, 8, 55.00000000000000000, #29 ) ;
#122 = CLOSED_SHELL ( 'NONE', ( #70, #163, #128, #159, #37 ) ) ;
#123 = AXIS2_PLACEMENT_3D ( 'NONE', #130, #153, #198 ) ;
#124 = VERTEX_POINT ( 'NONE', #98 ) ;
#125 = DIRECTION ( 'NONE',  ( -0.0000000000000000000, 1.000000000000000000, -0.0000000000000000000 ) ) ;
#126 = VECTOR ( 'NONE', #7, 39.37007874015748100 ) ;
#127 = CARTESIAN_POINT ( 'NONE',  ( 2.415198459160990500E-031, -0.08999999999999999700, -6.917403316155891900E-017 ) ) ;
#128 = ADVANCED_FACE ( 'NONE', ( #23 ), #174, .F. ) ;
#129 = PERSON_AND_ORGANIZATION_ROLE ( 'classification_officer' ) ;
#130 = CARTESIAN_POINT ( 'NONE',  ( 5.143516556418884400E-017, -0.8400000000000000800, 0.0000000000000000000 ) ) ;
#131 = EDGE_LOOP ( 'NONE', ( #118, #3, #40, #114 ) ) ;
#132 = ORIENTED_EDGE ( 'NONE', *, *, #173, .T. ) ;
#133 = DIMENSIONAL_EXPONENTS ( 1.000000000000000000, 0.0000000000000000000, 0.0000000000000000000, 0.0000000000000000000, 0.0000000000000000000, 0.0000000000000000000, 0.0000000000000000000 ) ;
#134 = ORIENTED_EDGE ( 'NONE', *, *, #74, .F. ) ;
#135 = APPROVAL ( #83, 'UNSPECIFIED' ) ;
#136 = APPROVAL_PERSON_ORGANIZATION ( #110, #135, #109 ) ;
#137 = ORIENTED_EDGE ( 'NONE', *, *, #33, .F. ) ;
#138 = CC_DESIGN_PERSON_AND_ORGANIZATION_ASSIGNMENT ( #4, #105, ( #213 ) ) ;
#139 = FACE_OUTER_BOUND ( 'NONE', #188, .T. ) ;
#140 = PERSON ( 'UNSPECIFIED', 'UNSPECIFIED', 'UNSPECIFIED', ('UNSPECIFIED'), ('UNSPECIFIED'), ('UNSPECIFIED') ) ;
#141 = CARTESIAN_POINT ( 'NONE',  ( 0.7500000000000001100, -0.8399999999999999700, 0.0000000000000000000 ) ) ;
#142 = SHAPE_DEFINITION_REPRESENTATION ( #101, #90 ) ;
#143 = DIRECTION ( 'NONE',  ( 1.000000000000000000, 0.0000000000000000000, 3.491481338843133000E-015 ) ) ;
#144 = CC_DESIGN_APPROVAL ( #150, ( #58 ) ) ;
#145 = PERSON_AND_ORGANIZATION ( #140, #95 ) ;
#146 = PERSON_AND_ORGANIZATION ( #140, #95 ) ;
#147 = DIRECTION ( 'NONE',  ( -0.0000000000000000000, 1.000000000000000000, 0.0000000000000000000 ) ) ;
#148 = DIRECTION ( 'NONE',  ( 0.0000000000000000000, 0.0000000000000000000, 1.000000000000000000 ) ) ;
#149 = APPLICATION_CONTEXT ( 'configuration controlled 3d designs of mechanical parts and assemblies' ) ;
#150 = APPROVAL ( #183, 'UNSPECIFIED' ) ;
#151 = VERTEX_POINT ( 'NONE', #160 ) ;
#152 = PERSON_AND_ORGANIZATION_ROLE ( 'design_owner' ) ;
#153 = DIRECTION ( 'NONE',  ( -0.0000000000000000000, 0.0000000000000000000, -1.000000000000000000 ) ) ;
#154 = AXIS2_PLACEMENT_3D ( 'NONE', #212, #14, #80 ) ;
#155 = DIRECTION ( 'NONE',  ( -1.000000000000000000, 0.0000000000000000000, 0.0000000000000000000 ) ) ;
#156 = PRODUCT ( '3_4in CORNER FILLER 13 Ga', '3_4in CORNER FILLER 13 Ga', '', ( #27 ) ) ;
#157 = ORIENTED_EDGE ( 'NONE', *, *, #185, .T. ) ;
#158 = DIRECTION ( 'NONE',  ( 1.000000000000000000, 0.0000000000000000000, 3.491481338843133400E-015 ) ) ;
#159 = ADVANCED_FACE ( 'NONE', ( #20 ), #196, .F. ) ;
#160 = CARTESIAN_POINT ( 'NONE',  ( 0.0000000000000000000, 0.0000000000000000000, 0.0000000000000000000 ) ) ;
#161 = SECURITY_CLASSIFICATION_LEVEL ( 'unclassified' ) ;
#162 = CALENDAR_DATE ( 2016, 22, 12 ) ;
#163 = ADVANCED_FACE ( 'NONE', ( #182 ), #10, .F. ) ;
#164 = PERSON_AND_ORGANIZATION ( #140, #95 ) ;
#165 = LINE ( 'NONE', #36, #100 ) ;
#166 = CARTESIAN_POINT ( 'NONE',  ( 0.0000000000000000000, 0.0000000000000000000, 0.0000000000000000000 ) ) ;
#167 = APPLICATION_PROTOCOL_DEFINITION ( 'international standard', 'config_control_design', 1994, #169 ) ;
#168 = MANIFOLD_SOLID_BREP ( 'Revolve1', #122 ) ;
#169 = APPLICATION_CONTEXT ( 'configuration controlled 3d designs of mechanical parts and assemblies' ) ;
#170 = CIRCLE ( 'NONE', #38, 0.8400000000000000800 ) ;
#171 = CC_DESIGN_DATE_AND_TIME_ASSIGNMENT ( #31, #32, ( #58 ) ) ;
#172 = CARTESIAN_POINT ( 'NONE',  ( -1.795849207276722800E-031, -0.8400000000000000800, 5.143516556418884400E-017 ) ) ;
#173 = EDGE_CURVE ( 'NONE', #52, #151, #170, .T. ) ;
#174 = SPHERICAL_SURFACE ( 'NONE', #154, 0.7500000000000001100 ) ;
#175 = COORDINATED_UNIVERSAL_TIME_OFFSET ( 8, 0, .BEHIND. ) ;
#176 = APPROVAL_STATUS ( 'not_yet_approved' ) ;
#177 = APPROVAL_DATE_TIME ( #87, #135 ) ;
#178 = AXIS2_PLACEMENT_3D ( 'NONE', #209, #143, #16 ) ;
#179 = CARTESIAN_POINT ( 'NONE',  ( 0.8400000000000000800, -0.8399999999999999700, 0.0000000000000000000 ) ) ;
#180 = PRODUCT_RELATED_PRODUCT_CATEGORY ( 'detail', '', ( #156 ) ) ;
#181 = DATE_AND_TIME ( #162, #63 ) ;
#182 = FACE_OUTER_BOUND ( 'NONE', #131, .T. ) ;
#183 = APPROVAL_STATUS ( 'not_yet_approved' ) ;
#184 = CC_DESIGN_PERSON_AND_ORGANIZATION_ASSIGNMENT ( #146, #129, ( #58 ) ) ;
#185 = EDGE_CURVE ( 'NONE', #124, #52, #13, .T. ) ;
#186 = EDGE_LOOP ( 'NONE', ( #193, #134, #39, #103 ) ) ;
#187 = DIRECTION ( 'NONE',  ( 0.0000000000000000000, 0.0000000000000000000, 1.000000000000000000 ) ) ;
#188 = EDGE_LOOP ( 'NONE', ( #96, #21, #89 ) ) ;
#189 = APPROVAL_PERSON_ORGANIZATION ( #8, #84, #199 ) ;
#190 = PLANE ( 'NONE',  #123 ) ;
#191 = PERSON_AND_ORGANIZATION ( #140, #95 ) ;
#192 = DATE_AND_TIME ( #205, #25 ) ;
#193 = ORIENTED_EDGE ( 'NONE', *, *, #200, .F. ) ;
#194 = CALENDAR_DATE ( 2016, 22, 12 ) ;
#195 = CARTESIAN_POINT ( 'NONE',  ( -2.618611004132350000E-015, -0.8399999999999999700, 0.7500000000000001100 ) ) ;
#196 = PLANE ( 'NONE',  #178 ) ;
#197 = DIRECTION ( 'NONE',  ( 0.0000000000000000000, 0.0000000000000000000, 1.000000000000000000 ) ) ;
#198 = DIRECTION ( 'NONE',  ( -1.000000000000000000, 0.0000000000000000000, 0.0000000000000000000 ) ) ;
#199 = APPROVAL_ROLE ( '' ) ;
#200 = EDGE_CURVE ( 'NONE', #24, #151, #202, .T. ) ;
#201 = CIRCLE ( 'NONE', #99, 0.8400000000000000800 ) ;
#202 = CIRCLE ( 'NONE', #104, 0.8400000000000000800 ) ;
#203 = SPHERICAL_SURFACE ( 'NONE', #66, 0.8400000000000000800 ) ;
#204 = PERSON_AND_ORGANIZATION ( #140, #95 ) ;
#205 = CALENDAR_DATE ( 2016, 22, 12 ) ;
#206 = EDGE_CURVE ( 'NONE', #52, #24, #201, .T. ) ;
#207 = ORIENTED_EDGE ( 'NONE', *, *, #117, .T. ) ;
#208 = UNCERTAINTY_MEASURE_WITH_UNIT (LENGTH_MEASURE( 1.000000000000000100E-005 ), #79, 'distance_accuracy_value', 'NONE');
#209 = CARTESIAN_POINT ( 'NONE',  ( -1.795849207276722800E-031, -0.8400000000000000800, 5.143516556418884400E-017 ) ) ;
#210 = CALENDAR_DATE ( 2016, 22, 12 ) ;
#211 = DESIGN_CONTEXT ( 'detailed design', #149, 'design' ) ;
#212 = CARTESIAN_POINT ( 'NONE',  ( -1.795849207276722800E-031, -0.8400000000000000800, 5.143516556418884400E-017 ) ) ;
#213 = PRODUCT_DEFINITION_FORMATION_WITH_SPECIFIED_SOURCE ( 'ANY', '', #156, .NOT_KNOWN. ) ;
ENDSEC;
END-ISO-10303-21;
