ISO-10303-21;
HEADER;
FILE_DESCRIPTION (( 'STEP AP203' ),
    '1' );
FILE_NAME ('3_4in CORNER FILLER ,050 Alum.STEP',
    '2016-12-23T01:22:56',
    ( 'temp' ),
    ( '' ),
    'SwSTEP 2.0',
    'SolidWorks 2016',
    '' );
FILE_SCHEMA (( 'CONFIG_CONTROL_DESIGN' ));
ENDSEC;

DATA;
#1 = CIRCLE ( 'NONE', #102, 0.8000000000000000400 ) ;
#2 = DIRECTION ( 'NONE',  ( 0.0000000000000000000, 0.0000000000000000000, 1.000000000000000000 ) ) ;
#3 = DIRECTION ( 'NONE',  ( 1.000000000000000000, 0.0000000000000000000, 3.491481338843133400E-015 ) ) ;
#4 = EDGE_LOOP ( 'NONE', ( #45, #193, #179 ) ) ;
#5 = UNCERTAINTY_MEASURE_WITH_UNIT (LENGTH_MEASURE( 1.000000000000000100E-005 ), #145, 'distance_accuracy_value', 'NONE');
#6 = CARTESIAN_POINT ( 'NONE',  ( 4.898587196589413100E-017, -0.8000000000000000400, 0.0000000000000000000 ) ) ;
#7 = ORIENTED_EDGE ( 'NONE', *, *, #104, .F. ) ;
#8 = DIRECTION ( 'NONE',  ( 1.000000000000000000, 0.0000000000000000000, 3.491481338843133000E-015 ) ) ;
#9 = CARTESIAN_POINT ( 'NONE',  ( -2.618611004132350000E-015, -0.7999999999999999300, 0.7500000000000001100 ) ) ;
#10 = CARTESIAN_POINT ( 'NONE',  ( 0.0000000000000000000, -0.7999999999999999300, 0.0000000000000000000 ) ) ;
#11 = LOCAL_TIME ( 17, 22, 56.00000000000000000, #73 ) ;
#12 = DIRECTION ( 'NONE',  ( -1.000000000000000000, 0.0000000000000000000, 0.0000000000000000000 ) ) ;
#13 = EDGE_CURVE ( 'NONE', #113, #192, #87, .T. ) ;
#14 = PRODUCT_DEFINITION ( 'UNKNOWN', '', #81, #208 ) ;
#15 = ADVANCED_BREP_SHAPE_REPRESENTATION ( '3_4in CORNER FILLER ,050 Alum', ( #211, #57 ), #105 ) ;
#16 = LINE ( 'NONE', #114, #134 ) ;
#17 = DIRECTION ( 'NONE',  ( 0.0000000000000000000, 0.0000000000000000000, 1.000000000000000000 ) ) ;
#18 = PRODUCT_DEFINITION_SHAPE ( 'NONE', 'NONE',  #14 ) ;
#19 = PLANE ( 'NONE',  #122 ) ;
#20 = DIRECTION ( 'NONE',  ( 3.491481338843133000E-015, 0.0000000000000000000, -1.000000000000000000 ) ) ;
#21 = APPROVAL_STATUS ( 'not_yet_approved' ) ;
#22 = DIRECTION ( 'NONE',  ( 5.001430176157857800E-030, -1.000000000000000000, -1.432466535197072100E-015 ) ) ;
#23 = PERSON_AND_ORGANIZATION ( #159, #86 ) ;
#24 = ORIENTED_EDGE ( 'NONE', *, *, #89, .F. ) ;
#25 = CIRCLE ( 'NONE', #112, 0.7500000000000001100 ) ;
#26 = ORIENTED_EDGE ( 'NONE', *, *, #89, .T. ) ;
#27 = MECHANICAL_CONTEXT ( 'NONE', #203, 'mechanical' ) ;
#28 = APPROVAL_ROLE ( '' ) ;
#29 = CIRCLE ( 'NONE', #67, 0.8000000000000000400 ) ;
#30 = DIRECTION ( 'NONE',  ( 1.000000000000000000, 0.0000000000000000000, 3.491481338843133400E-015 ) ) ;
#31 = PERSON_AND_ORGANIZATION_ROLE ( 'creator' ) ;
#32 = PERSON_AND_ORGANIZATION ( #159, #86 ) ;
#33 = DATE_AND_TIME ( #185, #61 ) ;
#34 = CLOSED_SHELL ( 'NONE', ( #99, #172, #138, #158, #143 ) ) ;
#35 = CARTESIAN_POINT ( 'NONE',  ( -1.710332578358783500E-031, -0.8000000000000000400, 4.898587196589413100E-017 ) ) ;
#36 = APPLICATION_CONTEXT ( 'configuration controlled 3d designs of mechanical parts and assemblies' ) ;
#37 = FACE_OUTER_BOUND ( 'NONE', #148, .T. ) ;
#38 = SPHERICAL_SURFACE ( 'NONE', #40, 0.8000000000000000400 ) ;
#39 = CARTESIAN_POINT ( 'NONE',  ( -1.710332578358783500E-031, -0.8000000000000000400, 4.898587196589413100E-017 ) ) ;
#40 = AXIS2_PLACEMENT_3D ( 'NONE', #35, #3, #47 ) ;
#41 = APPROVAL_PERSON_ORGANIZATION ( #147, #43, #108 ) ;
#42 = LOCAL_TIME ( 17, 22, 56.00000000000000000, #103 ) ;
#43 = APPROVAL ( #183, 'UNSPECIFIED' ) ;
#44 =( NAMED_UNIT ( * ) SI_UNIT ( $, .STERADIAN. ) SOLID_ANGLE_UNIT ( ) );
#45 = ORIENTED_EDGE ( 'NONE', *, *, #184, .T. ) ;
#46 = CIRCLE ( 'NONE', #163, 0.7500000000000001100 ) ;
#47 = DIRECTION ( 'NONE',  ( -3.491481338843133400E-015, 0.0000000000000000000, 1.000000000000000000 ) ) ;
#48 = PERSON_AND_ORGANIZATION_ROLE ( 'classification_officer' ) ;
#49 = ORIENTED_EDGE ( 'NONE', *, *, #142, .T. ) ;
#50 = EDGE_LOOP ( 'NONE', ( #7, #120, #121, #169 ) ) ;
#51 = CC_DESIGN_DATE_AND_TIME_ASSIGNMENT ( #106, #98, ( #93 ) ) ;
#52 = CARTESIAN_POINT ( 'NONE',  ( 0.7500000000000001100, -0.7999999999999999300, 0.0000000000000000000 ) ) ;
#53 = DIRECTION ( 'NONE',  ( 0.0000000000000000000, 0.0000000000000000000, 1.000000000000000000 ) ) ;
#54 = PRODUCT ( '3_4in CORNER FILLER ,050 Alum', '3_4in CORNER FILLER ,050 Alum', '', ( #27 ) ) ;
#55 = PERSON_AND_ORGANIZATION ( #159, #86 ) ;
#56 = APPROVAL_PERSON_ORGANIZATION ( #151, #96, #28 ) ;
#57 = AXIS2_PLACEMENT_3D ( 'NONE', #174, #53, #186 ) ;
#58 = CARTESIAN_POINT ( 'NONE',  ( -1.710332578358783500E-031, -0.8000000000000000400, 4.898587196589413100E-017 ) ) ;
#59 = DIRECTION ( 'NONE',  ( -3.491481338843133000E-015, 0.0000000000000000000, 1.000000000000000000 ) ) ;
#60 = CARTESIAN_POINT ( 'NONE',  ( -1.710332578358783500E-031, -0.8000000000000000400, 4.898587196589413100E-017 ) ) ;
#61 = LOCAL_TIME ( 17, 22, 56.00000000000000000, #140 ) ;
#62 = CC_DESIGN_PERSON_AND_ORGANIZATION_ASSIGNMENT ( #175, #162, ( #81 ) ) ;
#63 = VERTEX_POINT ( 'NONE', #129 ) ;
#64 = DIRECTION ( 'NONE',  ( -0.0000000000000000000, 1.000000000000000000, 0.0000000000000000000 ) ) ;
#65 = DIRECTION ( 'NONE',  ( -0.0000000000000000000, 0.0000000000000000000, -1.000000000000000000 ) ) ;
#66 = SECURITY_CLASSIFICATION_LEVEL ( 'unclassified' ) ;
#67 = AXIS2_PLACEMENT_3D ( 'NONE', #6, #2, #12 ) ;
#68 = ORIENTED_EDGE ( 'NONE', *, *, #13, .T. ) ;
#69 = FACE_OUTER_BOUND ( 'NONE', #205, .T. ) ;
#70 = ORIENTED_EDGE ( 'NONE', *, *, #124, .T. ) ;
#71 = CARTESIAN_POINT ( 'NONE',  ( -1.710332578358783500E-031, -0.8000000000000000400, 4.898587196589413100E-017 ) ) ;
#72 = APPLICATION_PROTOCOL_DEFINITION ( 'international standard', 'config_control_design', 1994, #36 ) ;
#73 = COORDINATED_UNIVERSAL_TIME_OFFSET ( 8, 0, .BEHIND. ) ;
#74 = CC_DESIGN_DATE_AND_TIME_ASSIGNMENT ( #33, #109, ( #14 ) ) ;
#75 = EDGE_CURVE ( 'NONE', #63, #113, #16, .T. ) ;
#76 =( LENGTH_UNIT ( ) NAMED_UNIT ( * ) SI_UNIT ( $, .METRE. ) );
#77 = CARTESIAN_POINT ( 'NONE',  ( 4.898587196589413100E-017, -0.8000000000000000400, 0.0000000000000000000 ) ) ;
#78 = SPHERICAL_SURFACE ( 'NONE', #173, 0.7500000000000001100 ) ;
#79 = ORIENTED_EDGE ( 'NONE', *, *, #135, .T. ) ;
#80 = APPROVAL_DATE_TIME ( #188, #43 ) ;
#81 = PRODUCT_DEFINITION_FORMATION_WITH_SPECIFIED_SOURCE ( 'ANY', '', #54, .NOT_KNOWN. ) ;
#82 = APPROVAL_DATE_TIME ( #83, #96 ) ;
#83 = DATE_AND_TIME ( #178, #115 ) ;
#84 = LINE ( 'NONE', #165, #107 ) ;
#85 = AXIS2_PLACEMENT_3D ( 'NONE', #127, #149, #187 ) ;
#86 = ORGANIZATION ( 'UNSPECIFIED', 'UNSPECIFIED', '' ) ;
#87 = CIRCLE ( 'NONE', #153, 0.7500000000000001100 ) ;
#88 = CARTESIAN_POINT ( 'NONE',  ( 2.500715088078929800E-031, -0.05000000000000001000, -7.162332675985362000E-017 ) ) ;
#89 = EDGE_CURVE ( 'NONE', #192, #167, #84, .T. ) ;
#90 =( NAMED_UNIT ( * ) PLANE_ANGLE_UNIT ( ) SI_UNIT ( $, .RADIAN. ) );
#91 = CIRCLE ( 'NONE', #85, 0.8000000000000000400 ) ;
#92 = DIRECTION ( 'NONE',  ( -1.000000000000000000, 0.0000000000000000000, 0.0000000000000000000 ) ) ;
#93 = SECURITY_CLASSIFICATION ( '', '', #66 ) ;
#94 = DIRECTION ( 'NONE',  ( -0.0000000000000000000, -0.0000000000000000000, -1.000000000000000000 ) ) ;
#95 = LINE ( 'NONE', #52, #137 ) ;
#96 = APPROVAL ( #21, 'UNSPECIFIED' ) ;
#97 = DIRECTION ( 'NONE',  ( -1.000000000000000000, 0.0000000000000000000, 0.0000000000000000000 ) ) ;
#98 = DATE_TIME_ROLE ( 'classification_date' ) ;
#99 = ADVANCED_FACE ( 'NONE', ( #181 ), #38, .T. ) ;
#100 = APPROVAL ( #116, 'UNSPECIFIED' ) ;
#101 = DIMENSIONAL_EXPONENTS ( 1.000000000000000000, 0.0000000000000000000, 0.0000000000000000000, 0.0000000000000000000, 0.0000000000000000000, 0.0000000000000000000, 0.0000000000000000000 ) ;
#102 = AXIS2_PLACEMENT_3D ( 'NONE', #58, #132, #160 ) ;
#103 = COORDINATED_UNIVERSAL_TIME_OFFSET ( 8, 0, .BEHIND. ) ;
#104 = EDGE_CURVE ( 'NONE', #139, #63, #29, .T. ) ;
#105 =( GEOMETRIC_REPRESENTATION_CONTEXT ( 3 ) GLOBAL_UNCERTAINTY_ASSIGNED_CONTEXT ( ( #5 ) ) GLOBAL_UNIT_ASSIGNED_CONTEXT ( ( #145, #90, #44 ) ) REPRESENTATION_CONTEXT ( 'NONE', 'WORKASPACE' ) );
#106 = DATE_AND_TIME ( #212, #42 ) ;
#107 = VECTOR ( 'NONE', #59, 39.37007874015748100 ) ;
#108 = APPROVAL_ROLE ( '' ) ;
#109 = DATE_TIME_ROLE ( 'creation_date' ) ;
#110 = CARTESIAN_POINT ( 'NONE',  ( 0.7500000000000001100, -0.7999999999999999300, 0.0000000000000000000 ) ) ;
#111 = DIRECTION ( 'NONE',  ( 0.0000000000000000000, 0.0000000000000000000, 1.000000000000000000 ) ) ;
#112 = AXIS2_PLACEMENT_3D ( 'NONE', #164, #94, #92 ) ;
#113 = VERTEX_POINT ( 'NONE', #88 ) ;
#114 = CARTESIAN_POINT ( 'NONE',  ( 0.0000000000000000000, 0.0000000000000000000, 0.0000000000000000000 ) ) ;
#115 = LOCAL_TIME ( 17, 22, 56.00000000000000000, #133 ) ;
#116 = APPROVAL_STATUS ( 'not_yet_approved' ) ;
#117 = PERSON_AND_ORGANIZATION ( #159, #86 ) ;
#118 = CC_DESIGN_PERSON_AND_ORGANIZATION_ASSIGNMENT ( #199, #161, ( #54 ) ) ;
#119 = FACE_OUTER_BOUND ( 'NONE', #50, .T. ) ;
#120 = ORIENTED_EDGE ( 'NONE', *, *, #123, .F. ) ;
#121 = ORIENTED_EDGE ( 'NONE', *, *, #135, .F. ) ;
#122 = AXIS2_PLACEMENT_3D ( 'NONE', #39, #8, #154 ) ;
#123 = EDGE_CURVE ( 'NONE', #156, #139, #95, .T. ) ;
#124 = EDGE_CURVE ( 'NONE', #167, #63, #1, .T. ) ;
#125 = CC_DESIGN_APPROVAL ( #96, ( #81 ) ) ;
#126 = CARTESIAN_POINT ( 'NONE',  ( -2.793185071074507100E-015, -0.7999999999999999300, 0.8000000000000000400 ) ) ;
#127 = CARTESIAN_POINT ( 'NONE',  ( 0.0000000000000000000, -0.7999999999999999300, 0.0000000000000000000 ) ) ;
#128 = AXIS2_PLACEMENT_3D ( 'NONE', #191, #64, #111 ) ;
#129 = CARTESIAN_POINT ( 'NONE',  ( 0.0000000000000000000, 0.0000000000000000000, 0.0000000000000000000 ) ) ;
#130 = DATE_AND_TIME ( #201, #11 ) ;
#131 = DIRECTION ( 'NONE',  ( 1.000000000000000000, 0.0000000000000000000, 0.0000000000000000000 ) ) ;
#132 = DIRECTION ( 'NONE',  ( -1.000000000000000000, 0.0000000000000000000, -3.491481338843133400E-015 ) ) ;
#133 = COORDINATED_UNIVERSAL_TIME_OFFSET ( 8, 0, .BEHIND. ) ;
#134 = VECTOR ( 'NONE', #22, 39.37007874015748100 ) ;
#135 = EDGE_CURVE ( 'NONE', #113, #156, #25, .T. ) ;
#136 = ORIENTED_EDGE ( 'NONE', *, *, #123, .T. ) ;
#137 = VECTOR ( 'NONE', #131, 39.37007874015748100 ) ;
#138 = ADVANCED_FACE ( 'NONE', ( #155 ), #78, .F. ) ;
#139 = VERTEX_POINT ( 'NONE', #202 ) ;
#140 = COORDINATED_UNIVERSAL_TIME_OFFSET ( 8, 0, .BEHIND. ) ;
#141 = CC_DESIGN_SECURITY_CLASSIFICATION ( #93, ( #81 ) ) ;
#142 = EDGE_CURVE ( 'NONE', #192, #156, #46, .T. ) ;
#143 = ADVANCED_FACE ( 'NONE', ( #119 ), #206, .T. ) ;
#144 = PLANE ( 'NONE',  #128 ) ;
#145 =( CONVERSION_BASED_UNIT ( 'INCH', #177 ) LENGTH_UNIT ( ) NAMED_UNIT ( #101 ) );
#146 = CALENDAR_DATE ( 2016, 22, 12 ) ;
#147 = PERSON_AND_ORGANIZATION ( #159, #86 ) ;
#148 = EDGE_LOOP ( 'NONE', ( #70, #171, #68, #26 ) ) ;
#149 = DIRECTION ( 'NONE',  ( -0.0000000000000000000, 1.000000000000000000, -0.0000000000000000000 ) ) ;
#150 = ORIENTED_EDGE ( 'NONE', *, *, #142, .F. ) ;
#151 = PERSON_AND_ORGANIZATION ( #159, #86 ) ;
#152 = PRODUCT_RELATED_PRODUCT_CATEGORY ( 'detail', '', ( #54 ) ) ;
#153 = AXIS2_PLACEMENT_3D ( 'NONE', #60, #30, #20 ) ;
#154 = DIRECTION ( 'NONE',  ( 3.491481338843133000E-015, 0.0000000000000000000, -1.000000000000000000 ) ) ;
#155 = FACE_OUTER_BOUND ( 'NONE', #176, .T. ) ;
#156 = VERTEX_POINT ( 'NONE', #110 ) ;
#157 = APPROVAL_DATE_TIME ( #130, #100 ) ;
#158 = ADVANCED_FACE ( 'NONE', ( #37 ), #19, .F. ) ;
#159 = PERSON ( 'UNSPECIFIED', 'UNSPECIFIED', 'UNSPECIFIED', ('UNSPECIFIED'), ('UNSPECIFIED'), ('UNSPECIFIED') ) ;
#160 = DIRECTION ( 'NONE',  ( 3.491481338843133700E-015, 0.0000000000000000000, -1.000000000000000000 ) ) ;
#161 = PERSON_AND_ORGANIZATION_ROLE ( 'design_owner' ) ;
#162 = PERSON_AND_ORGANIZATION_ROLE ( 'design_supplier' ) ;
#163 = AXIS2_PLACEMENT_3D ( 'NONE', #10, #197, #17 ) ;
#164 = CARTESIAN_POINT ( 'NONE',  ( 4.898587196589413100E-017, -0.8000000000000000400, 0.0000000000000000000 ) ) ;
#165 = CARTESIAN_POINT ( 'NONE',  ( -2.618611004132350000E-015, -0.7999999999999999300, 0.7500000000000001100 ) ) ;
#166 = SHAPE_DEFINITION_REPRESENTATION ( #18, #15 ) ;
#167 = VERTEX_POINT ( 'NONE', #126 ) ;
#168 = APPLICATION_PROTOCOL_DEFINITION ( 'international standard', 'config_control_design', 1994, #203 ) ;
#169 = ORIENTED_EDGE ( 'NONE', *, *, #75, .F. ) ;
#170 = APPROVAL_ROLE ( '' ) ;
#171 = ORIENTED_EDGE ( 'NONE', *, *, #75, .T. ) ;
#172 = ADVANCED_FACE ( 'NONE', ( #69 ), #144, .F. ) ;
#173 = AXIS2_PLACEMENT_3D ( 'NONE', #71, #190, #209 ) ;
#174 = CARTESIAN_POINT ( 'NONE',  ( 0.0000000000000000000, 0.0000000000000000000, 0.0000000000000000000 ) ) ;
#175 = PERSON_AND_ORGANIZATION ( #159, #86 ) ;
#176 = EDGE_LOOP ( 'NONE', ( #79, #150, #207 ) ) ;
#177 = LENGTH_MEASURE_WITH_UNIT ( LENGTH_MEASURE( 0.02539999999999999900 ), #76 );
#178 = CALENDAR_DATE ( 2016, 22, 12 ) ;
#179 = ORIENTED_EDGE ( 'NONE', *, *, #124, .F. ) ;
#180 = LOCAL_TIME ( 17, 22, 56.00000000000000000, #200 ) ;
#181 = FACE_OUTER_BOUND ( 'NONE', #4, .T. ) ;
#182 = CC_DESIGN_PERSON_AND_ORGANIZATION_ASSIGNMENT ( #23, #31, ( #14 ) ) ;
#183 = APPROVAL_STATUS ( 'not_yet_approved' ) ;
#184 = EDGE_CURVE ( 'NONE', #167, #139, #91, .T. ) ;
#185 = CALENDAR_DATE ( 2016, 22, 12 ) ;
#186 = DIRECTION ( 'NONE',  ( 1.000000000000000000, 0.0000000000000000000, 0.0000000000000000000 ) ) ;
#187 = DIRECTION ( 'NONE',  ( 0.0000000000000000000, 0.0000000000000000000, 1.000000000000000000 ) ) ;
#188 = DATE_AND_TIME ( #146, #180 ) ;
#189 = PERSON_AND_ORGANIZATION_ROLE ( 'creator' ) ;
#190 = DIRECTION ( 'NONE',  ( -1.000000000000000000, 0.0000000000000000000, -3.491481338843133000E-015 ) ) ;
#191 = CARTESIAN_POINT ( 'NONE',  ( -2.618611004132350000E-015, -0.7999999999999999300, 0.7500000000000001100 ) ) ;
#192 = VERTEX_POINT ( 'NONE', #9 ) ;
#193 = ORIENTED_EDGE ( 'NONE', *, *, #104, .T. ) ;
#194 = CC_DESIGN_APPROVAL ( #43, ( #93 ) ) ;
#195 = APPROVAL_PERSON_ORGANIZATION ( #32, #100, #170 ) ;
#196 = AXIS2_PLACEMENT_3D ( 'NONE', #77, #65, #97 ) ;
#197 = DIRECTION ( 'NONE',  ( -0.0000000000000000000, 1.000000000000000000, -0.0000000000000000000 ) ) ;
#198 = ORIENTED_EDGE ( 'NONE', *, *, #184, .F. ) ;
#199 = PERSON_AND_ORGANIZATION ( #159, #86 ) ;
#200 = COORDINATED_UNIVERSAL_TIME_OFFSET ( 8, 0, .BEHIND. ) ;
#201 = CALENDAR_DATE ( 2016, 22, 12 ) ;
#202 = CARTESIAN_POINT ( 'NONE',  ( 0.8000000000000000400, -0.7999999999999999300, 0.0000000000000000000 ) ) ;
#203 = APPLICATION_CONTEXT ( 'configuration controlled 3d designs of mechanical parts and assemblies' ) ;
#204 = CC_DESIGN_APPROVAL ( #100, ( #14 ) ) ;
#205 = EDGE_LOOP ( 'NONE', ( #49, #136, #198, #24 ) ) ;
#206 = PLANE ( 'NONE',  #196 ) ;
#207 = ORIENTED_EDGE ( 'NONE', *, *, #13, .F. ) ;
#208 = DESIGN_CONTEXT ( 'detailed design', #36, 'design' ) ;
#209 = DIRECTION ( 'NONE',  ( 3.491481338843133000E-015, 0.0000000000000000000, -1.000000000000000000 ) ) ;
#210 = CC_DESIGN_PERSON_AND_ORGANIZATION_ASSIGNMENT ( #55, #48, ( #93 ) ) ;
#211 = MANIFOLD_SOLID_BREP ( 'Revolve1', #34 ) ;
#212 = CALENDAR_DATE ( 2016, 22, 12 ) ;
#213 = CC_DESIGN_PERSON_AND_ORGANIZATION_ASSIGNMENT ( #117, #189, ( #81 ) ) ;
ENDSEC;
END-ISO-10303-21;
