ISO-10303-21;
HEADER;
FILE_DESCRIPTION (( 'STEP AP203' ),
    '1' );
FILE_NAME ('100505.STEP',
    '2017-01-12T16:33:44',
    ( 'temp' ),
    ( '' ),
    'SwSTEP 2.0',
    'SolidWorks 2016',
    '' );
FILE_SCHEMA (( 'CONFIG_CONTROL_DESIGN' ));
ENDSEC;

DATA;
#1 = CIRCLE ( 'NONE', #210, 1.000000000000000000 ) ;
#2 = CC_DESIGN_PERSON_AND_ORGANIZATION_ASSIGNMENT ( #84, #139, ( #17 ) ) ;
#3 = DIRECTION ( 'NONE',  ( -1.000000000000000000, 0.0000000000000000000, -3.491481338843133400E-015 ) ) ;
#4 = APPROVAL ( #125, 'UNSPECIFIED' ) ;
#5 = CALENDAR_DATE ( 2017, 12, 1 ) ;
#6 = CARTESIAN_POINT ( 'NONE',  ( 6.674325055353075000E-017, -1.090000000000000100, 0.0000000000000000000 ) ) ;
#7 = DIRECTION ( 'NONE',  ( 3.491481338843133400E-015, 0.0000000000000000000, -1.000000000000000000 ) ) ;
#8 = EDGE_CURVE ( 'NONE', #50, #95, #1, .T. ) ;
#9 = CLOSED_SHELL ( 'NONE', ( #180, #102, #21, #162, #87 ) ) ;
#10 = PERSON_AND_ORGANIZATION_ROLE ( 'creator' ) ;
#11 = ORIENTED_EDGE ( 'NONE', *, *, #131, .T. ) ;
#12 = PERSON_AND_ORGANIZATION ( #96, #53 ) ;
#13 = DATE_TIME_ROLE ( 'creation_date' ) ;
#14 = DIRECTION ( 'NONE',  ( -0.0000000000000000000, 1.000000000000000000, -0.0000000000000000000 ) ) ;
#15 = ORIENTED_EDGE ( 'NONE', *, *, #91, .T. ) ;
#16 = CARTESIAN_POINT ( 'NONE',  ( -3.491481338843133400E-015, -1.089999999999999900, 1.000000000000000000 ) ) ;
#17 = PRODUCT_DEFINITION ( 'UNKNOWN', '', #38, #201 ) ;
#18 = APPROVAL_PERSON_ORGANIZATION ( #66, #147, #62 ) ;
#19 = ORIENTED_EDGE ( 'NONE', *, *, #185, .T. ) ;
#20 = EDGE_CURVE ( 'NONE', #95, #98, #143, .T. ) ;
#21 = ADVANCED_FACE ( 'NONE', ( #128 ), #41, .F. ) ;
#22 = PLANE ( 'NONE',  #197 ) ;
#23 = CARTESIAN_POINT ( 'NONE',  ( 1.000000000000000000, -1.089999999999999900, 0.0000000000000000000 ) ) ;
#24 = AXIS2_PLACEMENT_3D ( 'NONE', #60, #158, #207 ) ;
#25 = DIRECTION ( 'NONE',  ( 0.0000000000000000000, 0.0000000000000000000, 1.000000000000000000 ) ) ;
#26 = CALENDAR_DATE ( 2017, 12, 1 ) ;
#27 = VERTEX_POINT ( 'NONE', #16 ) ;
#28 = DIRECTION ( 'NONE',  ( -1.000000000000000000, 0.0000000000000000000, -3.491481338843133400E-015 ) ) ;
#29 = DIRECTION ( 'NONE',  ( 1.000000000000000000, 0.0000000000000000000, 0.0000000000000000000 ) ) ;
#30 = CC_DESIGN_DATE_AND_TIME_ASSIGNMENT ( #190, #80, ( #97 ) ) ;
#31 = APPROVAL_ROLE ( '' ) ;
#32 = DIRECTION ( 'NONE',  ( 0.0000000000000000000, 0.0000000000000000000, 1.000000000000000000 ) ) ;
#33 = APPROVAL_DATE_TIME ( #76, #4 ) ;
#34 = EDGE_LOOP ( 'NONE', ( #67, #15, #137 ) ) ;
#35 = CIRCLE ( 'NONE', #213, 1.089999999999999900 ) ;
#36 = APPROVAL_PERSON_ORGANIZATION ( #199, #4, #92 ) ;
#37 = CIRCLE ( 'NONE', #114, 1.000000000000000000 ) ;
#38 = PRODUCT_DEFINITION_FORMATION_WITH_SPECIFIED_SOURCE ( 'ANY', '', #48, .NOT_KNOWN. ) ;
#39 = APPROVAL_DATE_TIME ( #126, #204 ) ;
#40 = CARTESIAN_POINT ( 'NONE',  ( 0.0000000000000000000, -1.089999999999999900, 0.0000000000000000000 ) ) ;
#41 = SPHERICAL_SURFACE ( 'NONE', #124, 1.000000000000000000 ) ;
#42 = PERSON_AND_ORGANIZATION_ROLE ( 'design_owner' ) ;
#43 = CARTESIAN_POINT ( 'NONE',  ( 6.674325055353075000E-017, -1.090000000000000100, 0.0000000000000000000 ) ) ;
#44 = DIRECTION ( 'NONE',  ( -0.0000000000000000000, -0.0000000000000000000, -1.000000000000000000 ) ) ;
#45 = VERTEX_POINT ( 'NONE', #200 ) ;
#46 = DIRECTION ( 'NONE',  ( 3.649335648781231600E-030, -1.000000000000000000, -1.045211271268143600E-015 ) ) ;
#47 = ADVANCED_BREP_SHAPE_REPRESENTATION ( '100505', ( #193, #104 ), #177 ) ;
#48 = PRODUCT ( '100505', '100505', '', ( #153 ) ) ;
#49 = CC_DESIGN_DATE_AND_TIME_ASSIGNMENT ( #81, #13, ( #17 ) ) ;
#50 = VERTEX_POINT ( 'NONE', #90 ) ;
#51 = LOCAL_TIME ( 8, 33, 44.00000000000000000, #132 ) ;
#52 = ORIENTED_EDGE ( 'NONE', *, *, #175, .F. ) ;
#53 = ORGANIZATION ( 'UNSPECIFIED', 'UNSPECIFIED', '' ) ;
#54 = CARTESIAN_POINT ( 'NONE',  ( 1.089999999999999900, -1.089999999999999900, 0.0000000000000000000 ) ) ;
#55 = CARTESIAN_POINT ( 'NONE',  ( 6.674325055353075000E-017, -1.090000000000000100, 0.0000000000000000000 ) ) ;
#56 = DIRECTION ( 'NONE',  ( 1.000000000000000000, 0.0000000000000000000, 3.491481338843133000E-015 ) ) ;
#57 = APPROVAL_DATE_TIME ( #100, #147 ) ;
#58 = ORIENTED_EDGE ( 'NONE', *, *, #185, .F. ) ;
#59 = EDGE_CURVE ( 'NONE', #27, #95, #37, .T. ) ;
#60 = CARTESIAN_POINT ( 'NONE',  ( -2.330328138013842600E-031, -1.090000000000000100, 6.674325055353075000E-017 ) ) ;
#61 = CC_DESIGN_APPROVAL ( #204, ( #17 ) ) ;
#62 = APPROVAL_ROLE ( '' ) ;
#63 = CC_DESIGN_APPROVAL ( #147, ( #97 ) ) ;
#64 =( LENGTH_UNIT ( ) NAMED_UNIT ( * ) SI_UNIT ( $, .METRE. ) );
#65 = UNCERTAINTY_MEASURE_WITH_UNIT (LENGTH_MEASURE( 1.000000000000000100E-005 ), #186, 'distance_accuracy_value', 'NONE');
#66 = PERSON_AND_ORGANIZATION ( #96, #53 ) ;
#67 = ORIENTED_EDGE ( 'NONE', *, *, #175, .T. ) ;
#68 = LOCAL_TIME ( 8, 33, 44.00000000000000000, #113 ) ;
#69 = EDGE_LOOP ( 'NONE', ( #179, #184, #52, #136 ) ) ;
#70 = DIMENSIONAL_EXPONENTS ( 1.000000000000000000, 0.0000000000000000000, 0.0000000000000000000, 0.0000000000000000000, 0.0000000000000000000, 0.0000000000000000000, 0.0000000000000000000 ) ;
#71 = FACE_OUTER_BOUND ( 'NONE', #34, .T. ) ;
#72 = EDGE_CURVE ( 'NONE', #50, #27, #163, .T. ) ;
#73 = DIRECTION ( 'NONE',  ( -0.0000000000000000000, 1.000000000000000000, 0.0000000000000000000 ) ) ;
#74 = CC_DESIGN_PERSON_AND_ORGANIZATION_ASSIGNMENT ( #107, #188, ( #38 ) ) ;
#75 = DIRECTION ( 'NONE',  ( -0.0000000000000000000, 0.0000000000000000000, -1.000000000000000000 ) ) ;
#76 = DATE_AND_TIME ( #150, #159 ) ;
#77 =( NAMED_UNIT ( * ) PLANE_ANGLE_UNIT ( ) SI_UNIT ( $, .RADIAN. ) );
#78 = FACE_OUTER_BOUND ( 'NONE', #130, .T. ) ;
#79 = CARTESIAN_POINT ( 'NONE',  ( 1.000000000000000000, -1.089999999999999900, 0.0000000000000000000 ) ) ;
#80 = DATE_TIME_ROLE ( 'classification_date' ) ;
#81 = DATE_AND_TIME ( #119, #208 ) ;
#82 = FACE_OUTER_BOUND ( 'NONE', #69, .T. ) ;
#83 = CC_DESIGN_PERSON_AND_ORGANIZATION_ASSIGNMENT ( #145, #205, ( #97 ) ) ;
#84 = PERSON_AND_ORGANIZATION ( #96, #53 ) ;
#85 = PRODUCT_DEFINITION_SHAPE ( 'NONE', 'NONE',  #17 ) ;
#86 = CIRCLE ( 'NONE', #187, 1.089999999999999900 ) ;
#87 = ADVANCED_FACE ( 'NONE', ( #170 ), #121, .T. ) ;
#88 = VERTEX_POINT ( 'NONE', #106 ) ;
#89 = DIRECTION ( 'NONE',  ( 1.000000000000000000, 0.0000000000000000000, 3.491481338843133400E-015 ) ) ;
#90 = CARTESIAN_POINT ( 'NONE',  ( 3.284402083903108100E-031, -0.08999999999999999700, -9.406901441413292200E-017 ) ) ;
#91 = EDGE_CURVE ( 'NONE', #98, #88, #86, .T. ) ;
#92 = APPROVAL_ROLE ( '' ) ;
#93 = CC_DESIGN_PERSON_AND_ORGANIZATION_ASSIGNMENT ( #176, #42, ( #48 ) ) ;
#94 = APPROVAL_PERSON_ORGANIZATION ( #12, #204, #31 ) ;
#95 = VERTEX_POINT ( 'NONE', #23 ) ;
#96 = PERSON ( 'UNSPECIFIED', 'UNSPECIFIED', 'UNSPECIFIED', ('UNSPECIFIED'), ('UNSPECIFIED'), ('UNSPECIFIED') ) ;
#97 = SECURITY_CLASSIFICATION ( '', '', #206 ) ;
#98 = VERTEX_POINT ( 'NONE', #54 ) ;
#99 = SHAPE_DEFINITION_REPRESENTATION ( #85, #47 ) ;
#100 = DATE_AND_TIME ( #178, #183 ) ;
#101 = ORIENTED_EDGE ( 'NONE', *, *, #8, .F. ) ;
#102 = ADVANCED_FACE ( 'NONE', ( #82 ), #149, .F. ) ;
#103 = AXIS2_PLACEMENT_3D ( 'NONE', #198, #89, #182 ) ;
#104 = AXIS2_PLACEMENT_3D ( 'NONE', #189, #32, #29 ) ;
#105 = DIRECTION ( 'NONE',  ( 0.0000000000000000000, 0.0000000000000000000, 1.000000000000000000 ) ) ;
#106 = CARTESIAN_POINT ( 'NONE',  ( 0.0000000000000000000, 0.0000000000000000000, 0.0000000000000000000 ) ) ;
#107 = PERSON_AND_ORGANIZATION ( #96, #53 ) ;
#108 = ORIENTED_EDGE ( 'NONE', *, *, #72, .T. ) ;
#109 = DIRECTION ( 'NONE',  ( 3.491481338843133000E-015, 0.0000000000000000000, -1.000000000000000000 ) ) ;
#110 = LENGTH_MEASURE_WITH_UNIT ( LENGTH_MEASURE( 0.02539999999999999900 ), #64 );
#111 = APPROVAL_STATUS ( 'not_yet_approved' ) ;
#112 = CARTESIAN_POINT ( 'NONE',  ( 0.0000000000000000000, 0.0000000000000000000, 0.0000000000000000000 ) ) ;
#113 = COORDINATED_UNIVERSAL_TIME_OFFSET ( 8, 0, .BEHIND. ) ;
#114 = AXIS2_PLACEMENT_3D ( 'NONE', #40, #134, #25 ) ;
#115 = COORDINATED_UNIVERSAL_TIME_OFFSET ( 8, 0, .BEHIND. ) ;
#116 = SPHERICAL_SURFACE ( 'NONE', #24, 1.089999999999999900 ) ;
#117 = CARTESIAN_POINT ( 'NONE',  ( -2.330328138013842600E-031, -1.090000000000000100, 6.674325055353075000E-017 ) ) ;
#118 = DIRECTION ( 'NONE',  ( -3.491481338843133000E-015, 0.0000000000000000000, 1.000000000000000000 ) ) ;
#119 = CALENDAR_DATE ( 2017, 12, 1 ) ;
#120 = DIRECTION ( 'NONE',  ( -1.000000000000000000, 0.0000000000000000000, 0.0000000000000000000 ) ) ;
#121 = PLANE ( 'NONE',  #166 ) ;
#122 = APPLICATION_PROTOCOL_DEFINITION ( 'international standard', 'config_control_design', 1994, #138 ) ;
#123 = CIRCLE ( 'NONE', #144, 1.089999999999999900 ) ;
#124 = AXIS2_PLACEMENT_3D ( 'NONE', #135, #28, #7 ) ;
#125 = APPROVAL_STATUS ( 'not_yet_approved' ) ;
#126 = DATE_AND_TIME ( #5, #51 ) ;
#127 = DIRECTION ( 'NONE',  ( 0.0000000000000000000, 0.0000000000000000000, 1.000000000000000000 ) ) ;
#128 = FACE_OUTER_BOUND ( 'NONE', #191, .T. ) ;
#129 = EDGE_LOOP ( 'NONE', ( #146, #173, #101, #58 ) ) ;
#130 = EDGE_LOOP ( 'NONE', ( #11, #19, #108, #212 ) ) ;
#131 = EDGE_CURVE ( 'NONE', #45, #88, #123, .T. ) ;
#132 = COORDINATED_UNIVERSAL_TIME_OFFSET ( 8, 0, .BEHIND. ) ;
#133 = AXIS2_PLACEMENT_3D ( 'NONE', #181, #73, #164 ) ;
#134 = DIRECTION ( 'NONE',  ( -0.0000000000000000000, 1.000000000000000000, -0.0000000000000000000 ) ) ;
#135 = CARTESIAN_POINT ( 'NONE',  ( -2.330328138013842600E-031, -1.090000000000000100, 6.674325055353075000E-017 ) ) ;
#136 = ORIENTED_EDGE ( 'NONE', *, *, #152, .F. ) ;
#137 = ORIENTED_EDGE ( 'NONE', *, *, #131, .F. ) ;
#138 = APPLICATION_CONTEXT ( 'configuration controlled 3d designs of mechanical parts and assemblies' ) ;
#139 = PERSON_AND_ORGANIZATION_ROLE ( 'creator' ) ;
#140 = CARTESIAN_POINT ( 'NONE',  ( 0.0000000000000000000, -1.089999999999999900, 0.0000000000000000000 ) ) ;
#141 = COORDINATED_UNIVERSAL_TIME_OFFSET ( 8, 0, .BEHIND. ) ;
#142 = ORIENTED_EDGE ( 'NONE', *, *, #8, .T. ) ;
#143 = LINE ( 'NONE', #79, #209 ) ;
#144 = AXIS2_PLACEMENT_3D ( 'NONE', #117, #3, #168 ) ;
#145 = PERSON_AND_ORGANIZATION ( #96, #53 ) ;
#146 = ORIENTED_EDGE ( 'NONE', *, *, #91, .F. ) ;
#147 = APPROVAL ( #156, 'UNSPECIFIED' ) ;
#148 = CARTESIAN_POINT ( 'NONE',  ( -3.491481338843133400E-015, -1.089999999999999900, 1.000000000000000000 ) ) ;
#149 = PLANE ( 'NONE',  #133 ) ;
#150 = CALENDAR_DATE ( 2017, 12, 1 ) ;
#151 = CARTESIAN_POINT ( 'NONE',  ( -2.330328138013842600E-031, -1.090000000000000100, 6.674325055353075000E-017 ) ) ;
#152 = EDGE_CURVE ( 'NONE', #27, #45, #203, .T. ) ;
#153 = MECHANICAL_CONTEXT ( 'NONE', #138, 'mechanical' ) ;
#154 = VECTOR ( 'NONE', #46, 39.37007874015748100 ) ;
#155 = DIRECTION ( 'NONE',  ( 1.000000000000000000, 0.0000000000000000000, 0.0000000000000000000 ) ) ;
#156 = APPROVAL_STATUS ( 'not_yet_approved' ) ;
#157 = APPLICATION_CONTEXT ( 'configuration controlled 3d designs of mechanical parts and assemblies' ) ;
#158 = DIRECTION ( 'NONE',  ( 1.000000000000000000, 0.0000000000000000000, 3.491481338843133400E-015 ) ) ;
#159 = LOCAL_TIME ( 8, 33, 44.00000000000000000, #115 ) ;
#160 = CC_DESIGN_PERSON_AND_ORGANIZATION_ASSIGNMENT ( #194, #10, ( #38 ) ) ;
#161 = COORDINATED_UNIVERSAL_TIME_OFFSET ( 8, 0, .BEHIND. ) ;
#162 = ADVANCED_FACE ( 'NONE', ( #78 ), #22, .F. ) ;
#163 = CIRCLE ( 'NONE', #103, 1.000000000000000000 ) ;
#164 = DIRECTION ( 'NONE',  ( 0.0000000000000000000, 0.0000000000000000000, 1.000000000000000000 ) ) ;
#165 = VECTOR ( 'NONE', #118, 39.37007874015748100 ) ;
#166 = AXIS2_PLACEMENT_3D ( 'NONE', #55, #75, #167 ) ;
#167 = DIRECTION ( 'NONE',  ( -1.000000000000000000, 0.0000000000000000000, 0.0000000000000000000 ) ) ;
#168 = DIRECTION ( 'NONE',  ( 3.491481338843133400E-015, 0.0000000000000000000, -1.000000000000000000 ) ) ;
#169 = APPLICATION_PROTOCOL_DEFINITION ( 'international standard', 'config_control_design', 1994, #157 ) ;
#170 = FACE_OUTER_BOUND ( 'NONE', #129, .T. ) ;
#171 = CC_DESIGN_APPROVAL ( #4, ( #38 ) ) ;
#172 = ORIENTED_EDGE ( 'NONE', *, *, #72, .F. ) ;
#173 = ORIENTED_EDGE ( 'NONE', *, *, #20, .F. ) ;
#174 = ORIENTED_EDGE ( 'NONE', *, *, #59, .F. ) ;
#175 = EDGE_CURVE ( 'NONE', #45, #98, #35, .T. ) ;
#176 = PERSON_AND_ORGANIZATION ( #96, #53 ) ;
#177 =( GEOMETRIC_REPRESENTATION_CONTEXT ( 3 ) GLOBAL_UNCERTAINTY_ASSIGNED_CONTEXT ( ( #65 ) ) GLOBAL_UNIT_ASSIGNED_CONTEXT ( ( #186, #77, #202 ) ) REPRESENTATION_CONTEXT ( 'NONE', 'WORKASPACE' ) );
#178 = CALENDAR_DATE ( 2017, 12, 1 ) ;
#179 = ORIENTED_EDGE ( 'NONE', *, *, #59, .T. ) ;
#180 = ADVANCED_FACE ( 'NONE', ( #71 ), #116, .T. ) ;
#181 = CARTESIAN_POINT ( 'NONE',  ( -3.491481338843133400E-015, -1.089999999999999900, 1.000000000000000000 ) ) ;
#182 = DIRECTION ( 'NONE',  ( 3.491481338843133400E-015, 0.0000000000000000000, -1.000000000000000000 ) ) ;
#183 = LOCAL_TIME ( 8, 33, 44.00000000000000000, #141 ) ;
#184 = ORIENTED_EDGE ( 'NONE', *, *, #20, .T. ) ;
#185 = EDGE_CURVE ( 'NONE', #88, #50, #195, .T. ) ;
#186 =( CONVERSION_BASED_UNIT ( 'INCH', #110 ) LENGTH_UNIT ( ) NAMED_UNIT ( #70 ) );
#187 = AXIS2_PLACEMENT_3D ( 'NONE', #6, #105, #196 ) ;
#188 = PERSON_AND_ORGANIZATION_ROLE ( 'design_supplier' ) ;
#189 = CARTESIAN_POINT ( 'NONE',  ( 0.0000000000000000000, 0.0000000000000000000, 0.0000000000000000000 ) ) ;
#190 = DATE_AND_TIME ( #26, #68 ) ;
#191 = EDGE_LOOP ( 'NONE', ( #142, #174, #172 ) ) ;
#192 = CC_DESIGN_SECURITY_CLASSIFICATION ( #97, ( #38 ) ) ;
#193 = MANIFOLD_SOLID_BREP ( 'Revolve1', #9 ) ;
#194 = PERSON_AND_ORGANIZATION ( #96, #53 ) ;
#195 = LINE ( 'NONE', #112, #154 ) ;
#196 = DIRECTION ( 'NONE',  ( -1.000000000000000000, 0.0000000000000000000, 0.0000000000000000000 ) ) ;
#197 = AXIS2_PLACEMENT_3D ( 'NONE', #151, #56, #109 ) ;
#198 = CARTESIAN_POINT ( 'NONE',  ( -2.330328138013842600E-031, -1.090000000000000100, 6.674325055353075000E-017 ) ) ;
#199 = PERSON_AND_ORGANIZATION ( #96, #53 ) ;
#200 = CARTESIAN_POINT ( 'NONE',  ( -3.805714659339015000E-015, -1.089999999999999900, 1.089999999999999900 ) ) ;
#201 = DESIGN_CONTEXT ( 'detailed design', #157, 'design' ) ;
#202 =( NAMED_UNIT ( * ) SI_UNIT ( $, .STERADIAN. ) SOLID_ANGLE_UNIT ( ) );
#203 = LINE ( 'NONE', #148, #165 ) ;
#204 = APPROVAL ( #111, 'UNSPECIFIED' ) ;
#205 = PERSON_AND_ORGANIZATION_ROLE ( 'classification_officer' ) ;
#206 = SECURITY_CLASSIFICATION_LEVEL ( 'unclassified' ) ;
#207 = DIRECTION ( 'NONE',  ( -3.491481338843133400E-015, 0.0000000000000000000, 1.000000000000000000 ) ) ;
#208 = LOCAL_TIME ( 8, 33, 44.00000000000000000, #161 ) ;
#209 = VECTOR ( 'NONE', #155, 39.37007874015748100 ) ;
#210 = AXIS2_PLACEMENT_3D ( 'NONE', #43, #44, #120 ) ;
#211 = PRODUCT_RELATED_PRODUCT_CATEGORY ( 'detail', '', ( #48 ) ) ;
#212 = ORIENTED_EDGE ( 'NONE', *, *, #152, .T. ) ;
#213 = AXIS2_PLACEMENT_3D ( 'NONE', #140, #14, #127 ) ;
ENDSEC;
END-ISO-10303-21;
