ISO-10303-21;
HEADER;
FILE_DESCRIPTION (( 'STEP AP203' ),
    '1' );
FILE_NAME ('3_4in CORNER FILLER 16 Ga.STEP',
    '2016-12-23T01:09:13',
    ( 'temp' ),
    ( '' ),
    'SwSTEP 2.0',
    'SolidWorks 2016',
    '' );
FILE_SCHEMA (( 'CONFIG_CONTROL_DESIGN' ));
ENDSEC;

DATA;
#1 = ORIENTED_EDGE ( 'NONE', *, *, #172, .F. ) ;
#2 = DIRECTION ( 'NONE',  ( -1.000000000000000000, 0.0000000000000000000, 0.0000000000000000000 ) ) ;
#3 = FACE_OUTER_BOUND ( 'NONE', #119, .T. ) ;
#4 = DIRECTION ( 'NONE',  ( 3.491481338843133000E-015, 0.0000000000000000000, -1.000000000000000000 ) ) ;
#5 = CC_DESIGN_PERSON_AND_ORGANIZATION_ASSIGNMENT ( #35, #70, ( #196 ) ) ;
#6 = PERSON_AND_ORGANIZATION ( #207, #74 ) ;
#7 = DIRECTION ( 'NONE',  ( -1.000000000000000000, 0.0000000000000000000, -3.491481338843133000E-015 ) ) ;
#8 = DATE_AND_TIME ( #107, #117 ) ;
#9 = CARTESIAN_POINT ( 'NONE',  ( -2.618611004132350000E-015, -0.8049999999999998300, 0.7500000000000001100 ) ) ;
#10 = PLANE ( 'NONE',  #139 ) ;
#11 = PRODUCT ( '3_4in CORNER FILLER 16 Ga', '3_4in CORNER FILLER 16 Ga', '', ( #204 ) ) ;
#12 = CARTESIAN_POINT ( 'NONE',  ( 0.7500000000000002200, -0.8049999999999998300, 0.0000000000000000000 ) ) ;
#13 = CARTESIAN_POINT ( 'NONE',  ( 0.7500000000000001100, -0.8049999999999998300, 0.0000000000000000000 ) ) ;
#14 =( CONVERSION_BASED_UNIT ( 'INCH', #30 ) LENGTH_UNIT ( ) NAMED_UNIT ( #130 ) );
#15 = CARTESIAN_POINT ( 'NONE',  ( 0.0000000000000000000, 0.0000000000000000000, 0.0000000000000000000 ) ) ;
#16 = ORIENTED_EDGE ( 'NONE', *, *, #100, .F. ) ;
#17 = CARTESIAN_POINT ( 'NONE',  ( 2.455257364474503600E-031, -0.05499999999999968800, -7.032136580996386100E-017 ) ) ;
#18 = APPROVAL_PERSON_ORGANIZATION ( #27, #116, #120 ) ;
#19 = COORDINATED_UNIVERSAL_TIME_OFFSET ( 8, 0, .BEHIND. ) ;
#20 = ORIENTED_EDGE ( 'NONE', *, *, #136, .F. ) ;
#21 = PERSON_AND_ORGANIZATION_ROLE ( 'classification_officer' ) ;
#22 = EDGE_CURVE ( 'NONE', #210, #176, #200, .T. ) ;
#23 = AXIS2_PLACEMENT_3D ( 'NONE', #180, #201, #61 ) ;
#24 = ORIENTED_EDGE ( 'NONE', *, *, #136, .T. ) ;
#25 = AXIS2_PLACEMENT_3D ( 'NONE', #15, #73, #82 ) ;
#26 = EDGE_CURVE ( 'NONE', #210, #104, #84, .T. ) ;
#27 = PERSON_AND_ORGANIZATION ( #207, #74 ) ;
#28 = PLANE ( 'NONE',  #143 ) ;
#29 = EDGE_CURVE ( 'NONE', #176, #104, #191, .T. ) ;
#30 = LENGTH_MEASURE_WITH_UNIT ( LENGTH_MEASURE( 0.02539999999999999900 ), #158 );
#31 = COORDINATED_UNIVERSAL_TIME_OFFSET ( 8, 0, .BEHIND. ) ;
#32 = ORIENTED_EDGE ( 'NONE', *, *, #155, .F. ) ;
#33 = DIRECTION ( 'NONE',  ( 0.0000000000000000000, 0.0000000000000000000, 1.000000000000000000 ) ) ;
#34 = DATE_AND_TIME ( #45, #44 ) ;
#35 = PERSON_AND_ORGANIZATION ( #207, #74 ) ;
#36 = EDGE_LOOP ( 'NONE', ( #140, #16, #20 ) ) ;
#37 = APPROVAL ( #64, 'UNSPECIFIED' ) ;
#38 = DIRECTION ( 'NONE',  ( -1.000000000000000000, 0.0000000000000000000, -3.491481338843133400E-015 ) ) ;
#39 = AXIS2_PLACEMENT_3D ( 'NONE', #118, #38, #48 ) ;
#40 = CARTESIAN_POINT ( 'NONE',  ( 0.8050000000000000500, -0.8049999999999998300, 0.0000000000000000000 ) ) ;
#41 = LINE ( 'NONE', #153, #183 ) ;
#42 = FACE_OUTER_BOUND ( 'NONE', #203, .T. ) ;
#43 = CARTESIAN_POINT ( 'NONE',  ( 0.0000000000000000000, -0.8049999999999998300, 0.0000000000000000000 ) ) ;
#44 = LOCAL_TIME ( 17, 9, 13.00000000000000000, #52 ) ;
#45 = CALENDAR_DATE ( 2016, 22, 12 ) ;
#46 = ADVANCED_FACE ( 'NONE', ( #42 ), #28, .F. ) ;
#47 = EDGE_CURVE ( 'NONE', #94, #176, #75, .T. ) ;
#48 = DIRECTION ( 'NONE',  ( 3.491481338843133000E-015, 0.0000000000000000000, -1.000000000000000000 ) ) ;
#49 = APPLICATION_PROTOCOL_DEFINITION ( 'international standard', 'config_control_design', 1994, #208 ) ;
#50 = ADVANCED_FACE ( 'NONE', ( #60 ), #55, .T. ) ;
#51 = APPLICATION_CONTEXT ( 'configuration controlled 3d designs of mechanical parts and assemblies' ) ;
#52 = COORDINATED_UNIVERSAL_TIME_OFFSET ( 8, 0, .BEHIND. ) ;
#53 = ORIENTED_EDGE ( 'NONE', *, *, #29, .F. ) ;
#54 = ORIENTED_EDGE ( 'NONE', *, *, #100, .T. ) ;
#55 = PLANE ( 'NONE',  #179 ) ;
#56 = CARTESIAN_POINT ( 'NONE',  ( -2.618611004132350400E-015, -0.8049999999999998300, 0.7500000000000002200 ) ) ;
#57 = AXIS2_PLACEMENT_3D ( 'NONE', #83, #165, #114 ) ;
#58 = CC_DESIGN_DATE_AND_TIME_ASSIGNMENT ( #8, #62, ( #196 ) ) ;
#59 = APPROVAL_STATUS ( 'not_yet_approved' ) ;
#60 = FACE_OUTER_BOUND ( 'NONE', #171, .T. ) ;
#61 = DIRECTION ( 'NONE',  ( -1.000000000000000000, 0.0000000000000000000, 0.0000000000000000000 ) ) ;
#62 = DATE_TIME_ROLE ( 'creation_date' ) ;
#63 = APPROVAL_PERSON_ORGANIZATION ( #79, #93, #96 ) ;
#64 = APPROVAL_STATUS ( 'not_yet_approved' ) ;
#65 = APPROVAL_ROLE ( '' ) ;
#66 = LOCAL_TIME ( 17, 9, 13.00000000000000000, #124 ) ;
#67 = FACE_OUTER_BOUND ( 'NONE', #36, .T. ) ;
#68 = SECURITY_CLASSIFICATION_LEVEL ( 'unclassified' ) ;
#69 = CARTESIAN_POINT ( 'NONE',  ( -1.721022156973526300E-031, -0.8050000000000000500, 4.929203366568098100E-017 ) ) ;
#70 = PERSON_AND_ORGANIZATION_ROLE ( 'creator' ) ;
#71 = CARTESIAN_POINT ( 'NONE',  ( -2.810642477768722100E-015, -0.8049999999999998300, 0.8050000000000000500 ) ) ;
#72 = VERTEX_POINT ( 'NONE', #56 ) ;
#73 = DIRECTION ( 'NONE',  ( 0.0000000000000000000, 0.0000000000000000000, 1.000000000000000000 ) ) ;
#74 = ORGANIZATION ( 'UNSPECIFIED', 'UNSPECIFIED', '' ) ;
#75 = LINE ( 'NONE', #13, #167 ) ;
#76 = PERSON_AND_ORGANIZATION_ROLE ( 'design_owner' ) ;
#77 = APPROVAL_STATUS ( 'not_yet_approved' ) ;
#78 = DESIGN_CONTEXT ( 'detailed design', #208, 'design' ) ;
#79 = PERSON_AND_ORGANIZATION ( #207, #74 ) ;
#80 = CC_DESIGN_APPROVAL ( #37, ( #162 ) ) ;
#81 = CIRCLE ( 'NONE', #57, 0.7500000000000002200 ) ;
#82 = DIRECTION ( 'NONE',  ( 1.000000000000000000, 0.0000000000000000000, 0.0000000000000000000 ) ) ;
#83 = CARTESIAN_POINT ( 'NONE',  ( -1.721022156973526300E-031, -0.8050000000000000500, 4.929203366568098100E-017 ) ) ;
#84 = CIRCLE ( 'NONE', #39, 0.8050000000000000500 ) ;
#85 = UNCERTAINTY_MEASURE_WITH_UNIT (LENGTH_MEASURE( 1.000000000000000100E-005 ), #14, 'distance_accuracy_value', 'NONE');
#86 = PERSON_AND_ORGANIZATION ( #207, #74 ) ;
#87 = ADVANCED_FACE ( 'NONE', ( #174 ), #10, .F. ) ;
#88 = SPHERICAL_SURFACE ( 'NONE', #109, 0.7500000000000002200 ) ;
#89 = DATE_TIME_ROLE ( 'classification_date' ) ;
#90 = CALENDAR_DATE ( 2016, 22, 12 ) ;
#91 = CARTESIAN_POINT ( 'NONE',  ( 4.929203366568098100E-017, -0.8050000000000000500, 0.0000000000000000000 ) ) ;
#92 = DIRECTION ( 'NONE',  ( 0.0000000000000000000, 0.0000000000000000000, 1.000000000000000000 ) ) ;
#93 = APPROVAL ( #59, 'UNSPECIFIED' ) ;
#94 = VERTEX_POINT ( 'NONE', #12 ) ;
#95 =( GEOMETRIC_REPRESENTATION_CONTEXT ( 3 ) GLOBAL_UNCERTAINTY_ASSIGNED_CONTEXT ( ( #85 ) ) GLOBAL_UNIT_ASSIGNED_CONTEXT ( ( #14, #212, #110 ) ) REPRESENTATION_CONTEXT ( 'NONE', 'WORKASPACE' ) );
#96 = APPROVAL_ROLE ( '' ) ;
#97 = PERSON_AND_ORGANIZATION_ROLE ( 'creator' ) ;
#98 = APPROVAL_DATE_TIME ( #34, #93 ) ;
#99 = CARTESIAN_POINT ( 'NONE',  ( -2.618611004132350000E-015, -0.8049999999999998300, 0.7500000000000001100 ) ) ;
#100 = EDGE_CURVE ( 'NONE', #72, #94, #128, .T. ) ;
#101 = DIRECTION ( 'NONE',  ( -0.0000000000000000000, 1.000000000000000000, 0.0000000000000000000 ) ) ;
#102 = VERTEX_POINT ( 'NONE', #17 ) ;
#103 = PERSON_AND_ORGANIZATION ( #207, #74 ) ;
#104 = VERTEX_POINT ( 'NONE', #189 ) ;
#105 = DIRECTION ( 'NONE',  ( 1.000000000000000000, 0.0000000000000000000, 3.491481338843133400E-015 ) ) ;
#106 = CC_DESIGN_APPROVAL ( #116, ( #209 ) ) ;
#107 = CALENDAR_DATE ( 2016, 22, 12 ) ;
#108 = ORIENTED_EDGE ( 'NONE', *, *, #199, .F. ) ;
#109 = AXIS2_PLACEMENT_3D ( 'NONE', #186, #7, #4 ) ;
#110 =( NAMED_UNIT ( * ) SI_UNIT ( $, .STERADIAN. ) SOLID_ANGLE_UNIT ( ) );
#111 = AXIS2_PLACEMENT_3D ( 'NONE', #142, #184, #122 ) ;
#112 = ORIENTED_EDGE ( 'NONE', *, *, #29, .T. ) ;
#113 = DIRECTION ( 'NONE',  ( -3.491481338843133400E-015, 0.0000000000000000000, 1.000000000000000000 ) ) ;
#114 = DIRECTION ( 'NONE',  ( 3.491481338843133000E-015, 0.0000000000000000000, -1.000000000000000000 ) ) ;
#115 = ORIENTED_EDGE ( 'NONE', *, *, #26, .T. ) ;
#116 = APPROVAL ( #77, 'UNSPECIFIED' ) ;
#117 = LOCAL_TIME ( 17, 9, 13.00000000000000000, #19 ) ;
#118 = CARTESIAN_POINT ( 'NONE',  ( -1.721022156973526300E-031, -0.8050000000000000500, 4.929203366568098100E-017 ) ) ;
#119 = EDGE_LOOP ( 'NONE', ( #147, #112, #164 ) ) ;
#120 = APPROVAL_ROLE ( '' ) ;
#121 = ORIENTED_EDGE ( 'NONE', *, *, #47, .T. ) ;
#122 = DIRECTION ( 'NONE',  ( 0.0000000000000000000, 0.0000000000000000000, 1.000000000000000000 ) ) ;
#123 = AXIS2_PLACEMENT_3D ( 'NONE', #43, #177, #170 ) ;
#124 = COORDINATED_UNIVERSAL_TIME_OFFSET ( 8, 0, .BEHIND. ) ;
#125 = DIRECTION ( 'NONE',  ( -1.000000000000000000, 0.0000000000000000000, 0.0000000000000000000 ) ) ;
#126 = CARTESIAN_POINT ( 'NONE',  ( 4.929203366568098100E-017, -0.8050000000000000500, 0.0000000000000000000 ) ) ;
#127 = CC_DESIGN_PERSON_AND_ORGANIZATION_ASSIGNMENT ( #135, #149, ( #209 ) ) ;
#128 = CIRCLE ( 'NONE', #123, 0.7500000000000002200 ) ;
#129 = CC_DESIGN_PERSON_AND_ORGANIZATION_ASSIGNMENT ( #131, #21, ( #162 ) ) ;
#130 = DIMENSIONAL_EXPONENTS ( 1.000000000000000000, 0.0000000000000000000, 0.0000000000000000000, 0.0000000000000000000, 0.0000000000000000000, 0.0000000000000000000, 0.0000000000000000000 ) ;
#131 = PERSON_AND_ORGANIZATION ( #207, #74 ) ;
#132 = LOCAL_TIME ( 17, 9, 13.00000000000000000, #190 ) ;
#133 = CLOSED_SHELL ( 'NONE', ( #182, #87, #144, #46, #50 ) ) ;
#134 = DIRECTION ( 'NONE',  ( 1.000000000000000000, 0.0000000000000000000, 3.491481338843133000E-015 ) ) ;
#135 = PERSON_AND_ORGANIZATION ( #207, #74 ) ;
#136 = EDGE_CURVE ( 'NONE', #102, #72, #81, .T. ) ;
#137 = CC_DESIGN_PERSON_AND_ORGANIZATION_ASSIGNMENT ( #86, #76, ( #11 ) ) ;
#138 = DATE_AND_TIME ( #90, #132 ) ;
#139 = AXIS2_PLACEMENT_3D ( 'NONE', #9, #101, #33 ) ;
#140 = ORIENTED_EDGE ( 'NONE', *, *, #155, .T. ) ;
#141 = PRODUCT_RELATED_PRODUCT_CATEGORY ( 'detail', '', ( #11 ) ) ;
#142 = CARTESIAN_POINT ( 'NONE',  ( 0.0000000000000000000, -0.8049999999999998300, 0.0000000000000000000 ) ) ;
#143 = AXIS2_PLACEMENT_3D ( 'NONE', #69, #134, #192 ) ;
#144 = ADVANCED_FACE ( 'NONE', ( #67 ), #88, .F. ) ;
#145 = MANIFOLD_SOLID_BREP ( 'Revolve1', #133 ) ;
#146 = APPROVAL_PERSON_ORGANIZATION ( #6, #37, #65 ) ;
#147 = ORIENTED_EDGE ( 'NONE', *, *, #22, .T. ) ;
#148 = LOCAL_TIME ( 17, 9, 13.00000000000000000, #31 ) ;
#149 = PERSON_AND_ORGANIZATION_ROLE ( 'design_supplier' ) ;
#150 = AXIS2_PLACEMENT_3D ( 'NONE', #91, #92, #125 ) ;
#151 = SPHERICAL_SURFACE ( 'NONE', #194, 0.8050000000000000500 ) ;
#152 = DIRECTION ( 'NONE',  ( -3.491481338843133000E-015, 0.0000000000000000000, 1.000000000000000000 ) ) ;
#153 = CARTESIAN_POINT ( 'NONE',  ( 0.0000000000000000000, 0.0000000000000000000, 0.0000000000000000000 ) ) ;
#154 = PRODUCT_DEFINITION_SHAPE ( 'NONE', 'NONE',  #196 ) ;
#155 = EDGE_CURVE ( 'NONE', #102, #94, #160, .T. ) ;
#156 = CARTESIAN_POINT ( 'NONE',  ( -1.721022156973526300E-031, -0.8050000000000000500, 4.929203366568098100E-017 ) ) ;
#157 = DIRECTION ( 'NONE',  ( 1.000000000000000000, 0.0000000000000000000, 0.0000000000000000000 ) ) ;
#158 =( LENGTH_UNIT ( ) NAMED_UNIT ( * ) SI_UNIT ( $, .METRE. ) );
#159 = DIRECTION ( 'NONE',  ( 4.464104299044577800E-030, -1.000000000000000000, -1.278570287453895700E-015 ) ) ;
#160 = CIRCLE ( 'NONE', #23, 0.7500000000000002200 ) ;
#161 = ORIENTED_EDGE ( 'NONE', *, *, #199, .T. ) ;
#162 = SECURITY_CLASSIFICATION ( '', '', #68 ) ;
#163 = SHAPE_DEFINITION_REPRESENTATION ( #154, #205 ) ;
#164 = ORIENTED_EDGE ( 'NONE', *, *, #26, .F. ) ;
#165 = DIRECTION ( 'NONE',  ( 1.000000000000000000, 0.0000000000000000000, 3.491481338843133400E-015 ) ) ;
#166 = APPROVAL_DATE_TIME ( #138, #116 ) ;
#167 = VECTOR ( 'NONE', #157, 39.37007874015748100 ) ;
#168 = DATE_AND_TIME ( #206, #66 ) ;
#169 = CC_DESIGN_SECURITY_CLASSIFICATION ( #162, ( #209 ) ) ;
#170 = DIRECTION ( 'NONE',  ( 0.0000000000000000000, 0.0000000000000000000, 1.000000000000000000 ) ) ;
#171 = EDGE_LOOP ( 'NONE', ( #53, #188, #32, #108 ) ) ;
#172 = EDGE_CURVE ( 'NONE', #72, #210, #187, .T. ) ;
#173 = CC_DESIGN_PERSON_AND_ORGANIZATION_ASSIGNMENT ( #103, #97, ( #209 ) ) ;
#174 = FACE_OUTER_BOUND ( 'NONE', #175, .T. ) ;
#175 = EDGE_LOOP ( 'NONE', ( #54, #121, #185, #1 ) ) ;
#176 = VERTEX_POINT ( 'NONE', #40 ) ;
#177 = DIRECTION ( 'NONE',  ( -0.0000000000000000000, 1.000000000000000000, -0.0000000000000000000 ) ) ;
#178 = VECTOR ( 'NONE', #152, 39.37007874015748100 ) ;
#179 = AXIS2_PLACEMENT_3D ( 'NONE', #126, #211, #2 ) ;
#180 = CARTESIAN_POINT ( 'NONE',  ( 4.929203366568098100E-017, -0.8050000000000000500, 0.0000000000000000000 ) ) ;
#181 = CC_DESIGN_APPROVAL ( #93, ( #196 ) ) ;
#182 = ADVANCED_FACE ( 'NONE', ( #3 ), #151, .T. ) ;
#183 = VECTOR ( 'NONE', #159, 39.37007874015748100 ) ;
#184 = DIRECTION ( 'NONE',  ( -0.0000000000000000000, 1.000000000000000000, -0.0000000000000000000 ) ) ;
#185 = ORIENTED_EDGE ( 'NONE', *, *, #22, .F. ) ;
#186 = CARTESIAN_POINT ( 'NONE',  ( -1.721022156973526300E-031, -0.8050000000000000500, 4.929203366568098100E-017 ) ) ;
#187 = LINE ( 'NONE', #99, #178 ) ;
#188 = ORIENTED_EDGE ( 'NONE', *, *, #47, .F. ) ;
#189 = CARTESIAN_POINT ( 'NONE',  ( 0.0000000000000000000, 0.0000000000000000000, 0.0000000000000000000 ) ) ;
#190 = COORDINATED_UNIVERSAL_TIME_OFFSET ( 8, 0, .BEHIND. ) ;
#191 = CIRCLE ( 'NONE', #150, 0.8050000000000000500 ) ;
#192 = DIRECTION ( 'NONE',  ( 3.491481338843133000E-015, 0.0000000000000000000, -1.000000000000000000 ) ) ;
#193 = APPROVAL_DATE_TIME ( #213, #37 ) ;
#194 = AXIS2_PLACEMENT_3D ( 'NONE', #156, #105, #113 ) ;
#195 = APPLICATION_PROTOCOL_DEFINITION ( 'international standard', 'config_control_design', 1994, #51 ) ;
#196 = PRODUCT_DEFINITION ( 'UNKNOWN', '', #209, #78 ) ;
#197 = ORIENTED_EDGE ( 'NONE', *, *, #172, .T. ) ;
#198 = CC_DESIGN_DATE_AND_TIME_ASSIGNMENT ( #168, #89, ( #162 ) ) ;
#199 = EDGE_CURVE ( 'NONE', #104, #102, #41, .T. ) ;
#200 = CIRCLE ( 'NONE', #111, 0.8050000000000000500 ) ;
#201 = DIRECTION ( 'NONE',  ( -0.0000000000000000000, -0.0000000000000000000, -1.000000000000000000 ) ) ;
#202 = CALENDAR_DATE ( 2016, 22, 12 ) ;
#203 = EDGE_LOOP ( 'NONE', ( #115, #161, #24, #197 ) ) ;
#204 = MECHANICAL_CONTEXT ( 'NONE', #51, 'mechanical' ) ;
#205 = ADVANCED_BREP_SHAPE_REPRESENTATION ( '3_4in CORNER FILLER 16 Ga', ( #145, #25 ), #95 ) ;
#206 = CALENDAR_DATE ( 2016, 22, 12 ) ;
#207 = PERSON ( 'UNSPECIFIED', 'UNSPECIFIED', 'UNSPECIFIED', ('UNSPECIFIED'), ('UNSPECIFIED'), ('UNSPECIFIED') ) ;
#208 = APPLICATION_CONTEXT ( 'configuration controlled 3d designs of mechanical parts and assemblies' ) ;
#209 = PRODUCT_DEFINITION_FORMATION_WITH_SPECIFIED_SOURCE ( 'ANY', '', #11, .NOT_KNOWN. ) ;
#210 = VERTEX_POINT ( 'NONE', #71 ) ;
#211 = DIRECTION ( 'NONE',  ( -0.0000000000000000000, 0.0000000000000000000, -1.000000000000000000 ) ) ;
#212 =( NAMED_UNIT ( * ) PLANE_ANGLE_UNIT ( ) SI_UNIT ( $, .RADIAN. ) );
#213 = DATE_AND_TIME ( #202, #148 ) ;
ENDSEC;
END-ISO-10303-21;
