ISO-10303-21;
HEADER;
FILE_DESCRIPTION (( 'STEP AP203' ),
    '1' );
FILE_NAME ('3_4in CORNER FILLER 18 Ga.STEP',
    '2016-12-23T01:09:36',
    ( 'temp' ),
    ( '' ),
    'SwSTEP 2.0',
    'SolidWorks 2016',
    '' );
FILE_SCHEMA (( 'CONFIG_CONTROL_DESIGN' ));
ENDSEC;

DATA;
#1 = SHAPE_DEFINITION_REPRESENTATION ( #86, #113 ) ;
#2 = PERSON_AND_ORGANIZATION ( #51, #181 ) ;
#3 = CARTESIAN_POINT ( 'NONE',  ( -1.703918831189937800E-031, -0.7970000000000000400, 4.880217494602202200E-017 ) ) ;
#4 = PERSON_AND_ORGANIZATION_ROLE ( 'design_supplier' ) ;
#5 = VERTEX_POINT ( 'NONE', #152 ) ;
#6 = APPLICATION_CONTEXT ( 'configuration controlled 3d designs of mechanical parts and assemblies' ) ;
#7 = LINE ( 'NONE', #192, #190 ) ;
#8 = PERSON_AND_ORGANIZATION_ROLE ( 'creator' ) ;
#9 = APPROVAL_ROLE ( '' ) ;
#10 = AXIS2_PLACEMENT_3D ( 'NONE', #95, #125, #84 ) ;
#11 = DATE_TIME_ROLE ( 'creation_date' ) ;
#12 = APPROVAL_PERSON_ORGANIZATION ( #162, #119, #9 ) ;
#13 = PERSON_AND_ORGANIZATION_ROLE ( 'creator' ) ;
#14 = CC_DESIGN_PERSON_AND_ORGANIZATION_ASSIGNMENT ( #211, #8, ( #191 ) ) ;
#15 = EDGE_CURVE ( 'NONE', #81, #199, #116, .T. ) ;
#16 = CLOSED_SHELL ( 'NONE', ( #34, #177, #99, #163, #47 ) ) ;
#17 = LOCAL_TIME ( 17, 9, 36.00000000000000000, #173 ) ;
#18 = DIRECTION ( 'NONE',  ( 1.000000000000000000, 0.0000000000000000000, 0.0000000000000000000 ) ) ;
#19 = APPROVAL_ROLE ( '' ) ;
#20 = PERSON_AND_ORGANIZATION ( #51, #181 ) ;
#21 = APPROVAL_STATUS ( 'not_yet_approved' ) ;
#22 = CIRCLE ( 'NONE', #143, 0.7499999999999998900 ) ;
#23 = CC_DESIGN_PERSON_AND_ORGANIZATION_ASSIGNMENT ( #25, #4, ( #191 ) ) ;
#24 = APPLICATION_PROTOCOL_DEFINITION ( 'international standard', 'config_control_design', 1994, #6 ) ;
#25 = PERSON_AND_ORGANIZATION ( #51, #181 ) ;
#26 = EDGE_LOOP ( 'NONE', ( #156, #170, #182, #210 ) ) ;
#27 = AXIS2_PLACEMENT_3D ( 'NONE', #120, #118, #115 ) ;
#28 = LENGTH_MEASURE_WITH_UNIT ( LENGTH_MEASURE( 0.02539999999999999900 ), #61 );
#29 = UNCERTAINTY_MEASURE_WITH_UNIT (LENGTH_MEASURE( 1.000000000000000100E-005 ), #59, 'distance_accuracy_value', 'NONE');
#30 = EDGE_LOOP ( 'NONE', ( #93, #41, #138, #164 ) ) ;
#31 = FACE_OUTER_BOUND ( 'NONE', #128, .T. ) ;
#32 = MECHANICAL_CONTEXT ( 'NONE', #44, 'mechanical' ) ;
#33 = CC_DESIGN_APPROVAL ( #119, ( #191 ) ) ;
#34 = ADVANCED_FACE ( 'NONE', ( #39 ), #55, .T. ) ;
#35 = AXIS2_PLACEMENT_3D ( 'NONE', #142, #64, #98 ) ;
#36 = PRODUCT_RELATED_PRODUCT_CATEGORY ( 'detail', '', ( #70 ) ) ;
#37 = FACE_OUTER_BOUND ( 'NONE', #26, .T. ) ;
#38 = CARTESIAN_POINT ( 'NONE',  ( -1.703918831189937800E-031, -0.7970000000000000400, 4.880217494602202200E-017 ) ) ;
#39 = FACE_OUTER_BOUND ( 'NONE', #56, .T. ) ;
#40 = CALENDAR_DATE ( 2016, 22, 12 ) ;
#41 = ORIENTED_EDGE ( 'NONE', *, *, #92, .T. ) ;
#42 = CC_DESIGN_APPROVAL ( #77, ( #174 ) ) ;
#43 = CC_DESIGN_PERSON_AND_ORGANIZATION_ASSIGNMENT ( #121, #144, ( #70 ) ) ;
#44 = APPLICATION_CONTEXT ( 'configuration controlled 3d designs of mechanical parts and assemblies' ) ;
#45 = CARTESIAN_POINT ( 'NONE',  ( -1.703918831189937800E-031, -0.7970000000000000400, 4.880217494602202200E-017 ) ) ;
#46 = AXIS2_PLACEMENT_3D ( 'NONE', #45, #196, #208 ) ;
#47 = ADVANCED_FACE ( 'NONE', ( #37 ), #102, .T. ) ;
#48 = DIRECTION ( 'NONE',  ( 5.334316670739938700E-030, -1.000000000000000000, -1.527809016589906600E-015 ) ) ;
#49 = CIRCLE ( 'NONE', #27, 0.7970000000000000400 ) ;
#50 = CARTESIAN_POINT ( 'NONE',  ( 0.0000000000000000000, 0.0000000000000000000, 0.0000000000000000000 ) ) ;
#51 = PERSON ( 'UNSPECIFIED', 'UNSPECIFIED', 'UNSPECIFIED', ('UNSPECIFIED'), ('UNSPECIFIED'), ('UNSPECIFIED') ) ;
#52 =( NAMED_UNIT ( * ) SI_UNIT ( $, .STERADIAN. ) SOLID_ANGLE_UNIT ( ) );
#53 = VERTEX_POINT ( 'NONE', #131 ) ;
#54 =( NAMED_UNIT ( * ) PLANE_ANGLE_UNIT ( ) SI_UNIT ( $, .RADIAN. ) );
#55 = SPHERICAL_SURFACE ( 'NONE', #82, 0.7970000000000000400 ) ;
#56 = EDGE_LOOP ( 'NONE', ( #172, #150, #87 ) ) ;
#57 = DESIGN_CONTEXT ( 'detailed design', #6, 'design' ) ;
#58 = LOCAL_TIME ( 17, 9, 36.00000000000000000, #68 ) ;
#59 =( CONVERSION_BASED_UNIT ( 'INCH', #28 ) LENGTH_UNIT ( ) NAMED_UNIT ( #171 ) );
#60 = EDGE_CURVE ( 'NONE', #53, #183, #62, .T. ) ;
#61 =( LENGTH_UNIT ( ) NAMED_UNIT ( * ) SI_UNIT ( $, .METRE. ) );
#62 = LINE ( 'NONE', #96, #104 ) ;
#63 = AXIS2_PLACEMENT_3D ( 'NONE', #38, #78, #169 ) ;
#64 = DIRECTION ( 'NONE',  ( -0.0000000000000000000, 0.0000000000000000000, -1.000000000000000000 ) ) ;
#65 = CALENDAR_DATE ( 2016, 22, 12 ) ;
#66 = FACE_OUTER_BOUND ( 'NONE', #30, .T. ) ;
#67 = AXIS2_PLACEMENT_3D ( 'NONE', #212, #202, #200 ) ;
#68 = COORDINATED_UNIVERSAL_TIME_OFFSET ( 8, 0, .BEHIND. ) ;
#69 = CARTESIAN_POINT ( 'NONE',  ( -2.782710627057977300E-015, -0.7969999999999998200, 0.7970000000000000400 ) ) ;
#70 = PRODUCT ( '3_4in CORNER FILLER 18 Ga', '3_4in CORNER FILLER 18 Ga', '', ( #32 ) ) ;
#71 = CALENDAR_DATE ( 2016, 22, 12 ) ;
#72 = CIRCLE ( 'NONE', #201, 0.7970000000000000400 ) ;
#73 = EDGE_CURVE ( 'NONE', #81, #53, #141, .T. ) ;
#74 = CARTESIAN_POINT ( 'NONE',  ( 0.7970000000000000400, -0.7969999999999998200, 0.0000000000000000000 ) ) ;
#75 = SPHERICAL_SURFACE ( 'NONE', #63, 0.7499999999999998900 ) ;
#76 = DIRECTION ( 'NONE',  ( 0.0000000000000000000, 0.0000000000000000000, 1.000000000000000000 ) ) ;
#77 = APPROVAL ( #100, 'UNSPECIFIED' ) ;
#78 = DIRECTION ( 'NONE',  ( -1.000000000000000000, 0.0000000000000000000, -3.491481338843133000E-015 ) ) ;
#79 = AXIS2_PLACEMENT_3D ( 'NONE', #112, #127, #148 ) ;
#80 = EDGE_CURVE ( 'NONE', #5, #81, #146, .T. ) ;
#81 = VERTEX_POINT ( 'NONE', #213 ) ;
#82 = AXIS2_PLACEMENT_3D ( 'NONE', #3, #160, #206 ) ;
#83 = CARTESIAN_POINT ( 'NONE',  ( -2.618611004132349600E-015, -0.7969999999999998200, 0.7499999999999998900 ) ) ;
#84 = DIRECTION ( 'NONE',  ( 0.0000000000000000000, 0.0000000000000000000, 1.000000000000000000 ) ) ;
#85 = PLANE ( 'NONE',  #10 ) ;
#86 = PRODUCT_DEFINITION_SHAPE ( 'NONE', 'NONE',  #168 ) ;
#87 = ORIENTED_EDGE ( 'NONE', *, *, #111, .F. ) ;
#88 = ORIENTED_EDGE ( 'NONE', *, *, #73, .F. ) ;
#89 = SECURITY_CLASSIFICATION_LEVEL ( 'unclassified' ) ;
#90 = DIRECTION ( 'NONE',  ( 1.000000000000000000, 0.0000000000000000000, 0.0000000000000000000 ) ) ;
#91 = CC_DESIGN_DATE_AND_TIME_ASSIGNMENT ( #124, #11, ( #168 ) ) ;
#92 = EDGE_CURVE ( 'NONE', #94, #5, #7, .T. ) ;
#93 = ORIENTED_EDGE ( 'NONE', *, *, #111, .T. ) ;
#94 = VERTEX_POINT ( 'NONE', #50 ) ;
#95 = CARTESIAN_POINT ( 'NONE',  ( -2.618611004132349600E-015, -0.7969999999999998200, 0.7499999999999998900 ) ) ;
#96 = CARTESIAN_POINT ( 'NONE',  ( 0.7499999999999998900, -0.7969999999999998200, 0.0000000000000000000 ) ) ;
#97 = EDGE_CURVE ( 'NONE', #183, #94, #72, .T. ) ;
#98 = DIRECTION ( 'NONE',  ( -1.000000000000000000, 0.0000000000000000000, 0.0000000000000000000 ) ) ;
#99 = ADVANCED_FACE ( 'NONE', ( #31 ), #75, .F. ) ;
#100 = APPROVAL_STATUS ( 'not_yet_approved' ) ;
#101 = AXIS2_PLACEMENT_3D ( 'NONE', #114, #159, #187 ) ;
#102 = PLANE ( 'NONE',  #35 ) ;
#103 = COORDINATED_UNIVERSAL_TIME_OFFSET ( 8, 0, .BEHIND. ) ;
#104 = VECTOR ( 'NONE', #18, 39.37007874015748100 ) ;
#105 = EDGE_CURVE ( 'NONE', #5, #53, #22, .T. ) ;
#106 = DATE_AND_TIME ( #65, #134 ) ;
#107 = ORIENTED_EDGE ( 'NONE', *, *, #80, .F. ) ;
#108 = APPROVAL_DATE_TIME ( #195, #126 ) ;
#109 = DATE_TIME_ROLE ( 'classification_date' ) ;
#110 = CIRCLE ( 'NONE', #79, 0.7970000000000000400 ) ;
#111 = EDGE_CURVE ( 'NONE', #199, #94, #49, .T. ) ;
#112 = CARTESIAN_POINT ( 'NONE',  ( 0.0000000000000000000, -0.7969999999999998200, 0.0000000000000000000 ) ) ;
#113 = ADVANCED_BREP_SHAPE_REPRESENTATION ( '3_4in CORNER FILLER 18 Ga', ( #207, #137 ), #153 ) ;
#114 = CARTESIAN_POINT ( 'NONE',  ( -1.703918831189937800E-031, -0.7970000000000000400, 4.880217494602202200E-017 ) ) ;
#115 = DIRECTION ( 'NONE',  ( 3.491481338843133000E-015, 0.0000000000000000000, -1.000000000000000000 ) ) ;
#116 = LINE ( 'NONE', #83, #176 ) ;
#117 = ORIENTED_EDGE ( 'NONE', *, *, #122, .F. ) ;
#118 = DIRECTION ( 'NONE',  ( -1.000000000000000000, 0.0000000000000000000, -3.491481338843133400E-015 ) ) ;
#119 = APPROVAL ( #185, 'UNSPECIFIED' ) ;
#120 = CARTESIAN_POINT ( 'NONE',  ( -1.703918831189937800E-031, -0.7970000000000000400, 4.880217494602202200E-017 ) ) ;
#121 = PERSON_AND_ORGANIZATION ( #51, #181 ) ;
#122 = EDGE_CURVE ( 'NONE', #199, #183, #110, .T. ) ;
#123 = CC_DESIGN_DATE_AND_TIME_ASSIGNMENT ( #145, #109, ( #174 ) ) ;
#124 = DATE_AND_TIME ( #40, #17 ) ;
#125 = DIRECTION ( 'NONE',  ( -0.0000000000000000000, 1.000000000000000000, 0.0000000000000000000 ) ) ;
#126 = APPROVAL ( #21, 'UNSPECIFIED' ) ;
#127 = DIRECTION ( 'NONE',  ( -0.0000000000000000000, 1.000000000000000000, -0.0000000000000000000 ) ) ;
#128 = EDGE_LOOP ( 'NONE', ( #209, #88, #107 ) ) ;
#129 = DIRECTION ( 'NONE',  ( -1.000000000000000000, 0.0000000000000000000, 0.0000000000000000000 ) ) ;
#130 = APPROVAL_ROLE ( '' ) ;
#131 = CARTESIAN_POINT ( 'NONE',  ( 0.7499999999999998900, -0.7969999999999998200, 0.0000000000000000000 ) ) ;
#132 = APPROVAL_PERSON_ORGANIZATION ( #2, #77, #130 ) ;
#133 = DIRECTION ( 'NONE',  ( -0.0000000000000000000, -0.0000000000000000000, -1.000000000000000000 ) ) ;
#134 = LOCAL_TIME ( 17, 9, 36.00000000000000000, #103 ) ;
#135 = CARTESIAN_POINT ( 'NONE',  ( 4.880217494602202200E-017, -0.7970000000000000400, 0.0000000000000000000 ) ) ;
#136 = PLANE ( 'NONE',  #101 ) ;
#137 = AXIS2_PLACEMENT_3D ( 'NONE', #167, #76, #90 ) ;
#138 = ORIENTED_EDGE ( 'NONE', *, *, #80, .T. ) ;
#139 = PERSON_AND_ORGANIZATION ( #51, #181 ) ;
#140 = PERSON_AND_ORGANIZATION_ROLE ( 'classification_officer' ) ;
#141 = CIRCLE ( 'NONE', #67, 0.7499999999999998900 ) ;
#142 = CARTESIAN_POINT ( 'NONE',  ( 4.880217494602202200E-017, -0.7970000000000000400, 0.0000000000000000000 ) ) ;
#143 = AXIS2_PLACEMENT_3D ( 'NONE', #135, #133, #129 ) ;
#144 = PERSON_AND_ORGANIZATION_ROLE ( 'design_owner' ) ;
#145 = DATE_AND_TIME ( #175, #149 ) ;
#146 = CIRCLE ( 'NONE', #46, 0.7499999999999998900 ) ;
#147 = CC_DESIGN_APPROVAL ( #126, ( #168 ) ) ;
#148 = DIRECTION ( 'NONE',  ( 0.0000000000000000000, 0.0000000000000000000, 1.000000000000000000 ) ) ;
#149 = LOCAL_TIME ( 17, 9, 36.00000000000000000, #186 ) ;
#150 = ORIENTED_EDGE ( 'NONE', *, *, #97, .T. ) ;
#151 = APPROVAL_DATE_TIME ( #106, #119 ) ;
#152 = CARTESIAN_POINT ( 'NONE',  ( 2.507128835247775000E-031, -0.04700000000000006900, -7.180702377972571700E-017 ) ) ;
#153 =( GEOMETRIC_REPRESENTATION_CONTEXT ( 3 ) GLOBAL_UNCERTAINTY_ASSIGNED_CONTEXT ( ( #29 ) ) GLOBAL_UNIT_ASSIGNED_CONTEXT ( ( #59, #54, #52 ) ) REPRESENTATION_CONTEXT ( 'NONE', 'WORKASPACE' ) );
#154 = PERSON_AND_ORGANIZATION ( #51, #181 ) ;
#155 = APPLICATION_PROTOCOL_DEFINITION ( 'international standard', 'config_control_design', 1994, #44 ) ;
#156 = ORIENTED_EDGE ( 'NONE', *, *, #97, .F. ) ;
#157 = EDGE_LOOP ( 'NONE', ( #180, #204, #117, #205 ) ) ;
#158 = CC_DESIGN_PERSON_AND_ORGANIZATION_ASSIGNMENT ( #139, #13, ( #168 ) ) ;
#159 = DIRECTION ( 'NONE',  ( 1.000000000000000000, 0.0000000000000000000, 3.491481338843133000E-015 ) ) ;
#160 = DIRECTION ( 'NONE',  ( 1.000000000000000000, 0.0000000000000000000, 3.491481338843133400E-015 ) ) ;
#161 = DIRECTION ( 'NONE',  ( -3.491481338843133000E-015, 0.0000000000000000000, 1.000000000000000000 ) ) ;
#162 = PERSON_AND_ORGANIZATION ( #51, #181 ) ;
#163 = ADVANCED_FACE ( 'NONE', ( #66 ), #136, .F. ) ;
#164 = ORIENTED_EDGE ( 'NONE', *, *, #15, .T. ) ;
#165 = LOCAL_TIME ( 17, 9, 36.00000000000000000, #166 ) ;
#166 = COORDINATED_UNIVERSAL_TIME_OFFSET ( 8, 0, .BEHIND. ) ;
#167 = CARTESIAN_POINT ( 'NONE',  ( 0.0000000000000000000, 0.0000000000000000000, 0.0000000000000000000 ) ) ;
#168 = PRODUCT_DEFINITION ( 'UNKNOWN', '', #191, #57 ) ;
#169 = DIRECTION ( 'NONE',  ( 3.491481338843133000E-015, 0.0000000000000000000, -1.000000000000000000 ) ) ;
#170 = ORIENTED_EDGE ( 'NONE', *, *, #60, .F. ) ;
#171 = DIMENSIONAL_EXPONENTS ( 1.000000000000000000, 0.0000000000000000000, 0.0000000000000000000, 0.0000000000000000000, 0.0000000000000000000, 0.0000000000000000000, 0.0000000000000000000 ) ;
#172 = ORIENTED_EDGE ( 'NONE', *, *, #122, .T. ) ;
#173 = COORDINATED_UNIVERSAL_TIME_OFFSET ( 8, 0, .BEHIND. ) ;
#174 = SECURITY_CLASSIFICATION ( '', '', #89 ) ;
#175 = CALENDAR_DATE ( 2016, 22, 12 ) ;
#176 = VECTOR ( 'NONE', #161, 39.37007874015748100 ) ;
#177 = ADVANCED_FACE ( 'NONE', ( #197 ), #85, .F. ) ;
#178 = APPROVAL_DATE_TIME ( #203, #77 ) ;
#179 = DIRECTION ( 'NONE',  ( -1.000000000000000000, 0.0000000000000000000, 0.0000000000000000000 ) ) ;
#180 = ORIENTED_EDGE ( 'NONE', *, *, #73, .T. ) ;
#181 = ORGANIZATION ( 'UNSPECIFIED', 'UNSPECIFIED', '' ) ;
#182 = ORIENTED_EDGE ( 'NONE', *, *, #105, .F. ) ;
#183 = VERTEX_POINT ( 'NONE', #74 ) ;
#184 = APPROVAL_PERSON_ORGANIZATION ( #154, #126, #19 ) ;
#185 = APPROVAL_STATUS ( 'not_yet_approved' ) ;
#186 = COORDINATED_UNIVERSAL_TIME_OFFSET ( 8, 0, .BEHIND. ) ;
#187 = DIRECTION ( 'NONE',  ( 3.491481338843133000E-015, 0.0000000000000000000, -1.000000000000000000 ) ) ;
#188 = CC_DESIGN_PERSON_AND_ORGANIZATION_ASSIGNMENT ( #20, #140, ( #174 ) ) ;
#189 = DIRECTION ( 'NONE',  ( 0.0000000000000000000, 0.0000000000000000000, 1.000000000000000000 ) ) ;
#190 = VECTOR ( 'NONE', #48, 39.37007874015748100 ) ;
#191 = PRODUCT_DEFINITION_FORMATION_WITH_SPECIFIED_SOURCE ( 'ANY', '', #70, .NOT_KNOWN. ) ;
#192 = CARTESIAN_POINT ( 'NONE',  ( 0.0000000000000000000, 0.0000000000000000000, 0.0000000000000000000 ) ) ;
#193 = CALENDAR_DATE ( 2016, 22, 12 ) ;
#194 = CARTESIAN_POINT ( 'NONE',  ( 4.880217494602202200E-017, -0.7970000000000000400, 0.0000000000000000000 ) ) ;
#195 = DATE_AND_TIME ( #71, #165 ) ;
#196 = DIRECTION ( 'NONE',  ( 1.000000000000000000, 0.0000000000000000000, 3.491481338843133400E-015 ) ) ;
#197 = FACE_OUTER_BOUND ( 'NONE', #157, .T. ) ;
#198 = CC_DESIGN_SECURITY_CLASSIFICATION ( #174, ( #191 ) ) ;
#199 = VERTEX_POINT ( 'NONE', #69 ) ;
#200 = DIRECTION ( 'NONE',  ( 0.0000000000000000000, 0.0000000000000000000, 1.000000000000000000 ) ) ;
#201 = AXIS2_PLACEMENT_3D ( 'NONE', #194, #189, #179 ) ;
#202 = DIRECTION ( 'NONE',  ( -0.0000000000000000000, 1.000000000000000000, -0.0000000000000000000 ) ) ;
#203 = DATE_AND_TIME ( #193, #58 ) ;
#204 = ORIENTED_EDGE ( 'NONE', *, *, #60, .T. ) ;
#205 = ORIENTED_EDGE ( 'NONE', *, *, #15, .F. ) ;
#206 = DIRECTION ( 'NONE',  ( -3.491481338843133400E-015, 0.0000000000000000000, 1.000000000000000000 ) ) ;
#207 = MANIFOLD_SOLID_BREP ( 'Revolve1', #16 ) ;
#208 = DIRECTION ( 'NONE',  ( 3.491481338843133400E-015, 0.0000000000000000000, -1.000000000000000000 ) ) ;
#209 = ORIENTED_EDGE ( 'NONE', *, *, #105, .T. ) ;
#210 = ORIENTED_EDGE ( 'NONE', *, *, #92, .F. ) ;
#211 = PERSON_AND_ORGANIZATION ( #51, #181 ) ;
#212 = CARTESIAN_POINT ( 'NONE',  ( 0.0000000000000000000, -0.7969999999999998200, 0.0000000000000000000 ) ) ;
#213 = CARTESIAN_POINT ( 'NONE',  ( -2.618611004132349600E-015, -0.7969999999999998200, 0.7499999999999998900 ) ) ;
ENDSEC;
END-ISO-10303-21;
