ISO-10303-21;
HEADER;
FILE_DESCRIPTION (( 'STEP AP203' ),
    '1' );
FILE_NAME ('1in CORNER FILLER 16 Ga.STEP',
    '2016-12-23T01:14:11',
    ( 'temp' ),
    ( '' ),
    'SwSTEP 2.0',
    'SolidWorks 2016',
    '' );
FILE_SCHEMA (( 'CONFIG_CONTROL_DESIGN' ));
ENDSEC;

DATA;
#1 = APPROVAL_ROLE ( '' ) ;
#2 = CALENDAR_DATE ( 2016, 22, 12 ) ;
#3 = APPROVAL ( #162, 'UNSPECIFIED' ) ;
#4 = DESIGN_CONTEXT ( 'detailed design', #37, 'design' ) ;
#5 = AXIS2_PLACEMENT_3D ( 'NONE', #48, #51, #81 ) ;
#6 = AXIS2_PLACEMENT_3D ( 'NONE', #156, #153, #135 ) ;
#7 =( LENGTH_UNIT ( ) NAMED_UNIT ( * ) SI_UNIT ( $, .METRE. ) );
#8 = DIMENSIONAL_EXPONENTS ( 1.000000000000000000, 0.0000000000000000000, 0.0000000000000000000, 0.0000000000000000000, 0.0000000000000000000, 0.0000000000000000000, 0.0000000000000000000 ) ;
#9 =( CONVERSION_BASED_UNIT ( 'INCH', #204 ) LENGTH_UNIT ( ) NAMED_UNIT ( #8 ) );
#10 =( NAMED_UNIT ( * ) SI_UNIT ( $, .STERADIAN. ) SOLID_ANGLE_UNIT ( ) );
#11 = CC_DESIGN_APPROVAL ( #3, ( #208 ) ) ;
#12 = EDGE_CURVE ( 'NONE', #172, #99, #69, .T. ) ;
#13 = CALENDAR_DATE ( 2016, 22, 12 ) ;
#14 = DATE_TIME_ROLE ( 'creation_date' ) ;
#15 = DIRECTION ( 'NONE',  ( 5.580899259319268900E-030, -1.000000000000000000, -1.598433076880898500E-015 ) ) ;
#16 = AXIS2_PLACEMENT_3D ( 'NONE', #100, #88, #87 ) ;
#17 = DATE_TIME_ROLE ( 'classification_date' ) ;
#18 = CIRCLE ( 'NONE', #16, 1.000000000000000000 ) ;
#19 = AXIS2_PLACEMENT_3D ( 'NONE', #188, #137, #181 ) ;
#20 = DIRECTION ( 'NONE',  ( -1.000000000000000000, 0.0000000000000000000, 0.0000000000000000000 ) ) ;
#21 = APPROVAL_DATE_TIME ( #74, #175 ) ;
#22 = CC_DESIGN_PERSON_AND_ORGANIZATION_ASSIGNMENT ( #101, #23, ( #208 ) ) ;
#23 = PERSON_AND_ORGANIZATION_ROLE ( 'creator' ) ;
#24 = PERSON_AND_ORGANIZATION ( #64, #154 ) ;
#25 = AXIS2_PLACEMENT_3D ( 'NONE', #161, #122, #20 ) ;
#26 = EDGE_LOOP ( 'NONE', ( #97, #126, #157, #113 ) ) ;
#27 = DIRECTION ( 'NONE',  ( -1.000000000000000000, 0.0000000000000000000, -3.491481338843133400E-015 ) ) ;
#28 = CARTESIAN_POINT ( 'NONE',  ( 0.0000000000000000000, 0.0000000000000000000, 0.0000000000000000000 ) ) ;
#29 = PERSON_AND_ORGANIZATION ( #64, #154 ) ;
#30 = CC_DESIGN_PERSON_AND_ORGANIZATION_ASSIGNMENT ( #24, #140, ( #208 ) ) ;
#31 = APPROVAL_ROLE ( '' ) ;
#32 = PRODUCT_DEFINITION_SHAPE ( 'NONE', 'NONE',  #166 ) ;
#33 = LOCAL_TIME ( 17, 14, 11.00000000000000000, #80 ) ;
#34 = AXIS2_PLACEMENT_3D ( 'NONE', #71, #62, #59 ) ;
#35 = PERSON_AND_ORGANIZATION_ROLE ( 'classification_officer' ) ;
#36 = ADVANCED_FACE ( 'NONE', ( #111 ), #102, .T. ) ;
#37 = APPLICATION_CONTEXT ( 'configuration controlled 3d designs of mechanical parts and assemblies' ) ;
#38 = DIRECTION ( 'NONE',  ( 1.000000000000000000, 0.0000000000000000000, 3.491481338843133000E-015 ) ) ;
#39 = CARTESIAN_POINT ( 'NONE',  ( 0.0000000000000000000, 0.0000000000000000000, 0.0000000000000000000 ) ) ;
#40 = DIRECTION ( 'NONE',  ( 0.0000000000000000000, 0.0000000000000000000, 1.000000000000000000 ) ) ;
#41 = SECURITY_CLASSIFICATION ( '', '', #158 ) ;
#42 = DIRECTION ( 'NONE',  ( -0.0000000000000000000, 1.000000000000000000, 0.0000000000000000000 ) ) ;
#43 = CIRCLE ( 'NONE', #47, 1.060000000000000300 ) ;
#44 = MECHANICAL_CONTEXT ( 'NONE', #108, 'mechanical' ) ;
#45 = VECTOR ( 'NONE', #121, 39.37007874015748100 ) ;
#46 = CARTESIAN_POINT ( 'NONE',  ( -3.700970219173721700E-015, -1.059999999999999800, 1.060000000000000300 ) ) ;
#47 = AXIS2_PLACEMENT_3D ( 'NONE', #109, #145, #160 ) ;
#48 = CARTESIAN_POINT ( 'NONE',  ( 0.0000000000000000000, -1.059999999999999800, 0.0000000000000000000 ) ) ;
#49 = PERSON_AND_ORGANIZATION ( #64, #154 ) ;
#50 = COORDINATED_UNIVERSAL_TIME_OFFSET ( 8, 0, .BEHIND. ) ;
#51 = DIRECTION ( 'NONE',  ( -0.0000000000000000000, 1.000000000000000000, -0.0000000000000000000 ) ) ;
#52 = CC_DESIGN_PERSON_AND_ORGANIZATION_ASSIGNMENT ( #49, #35, ( #41 ) ) ;
#53 = CIRCLE ( 'NONE', #6, 1.000000000000000000 ) ;
#54 = FACE_OUTER_BOUND ( 'NONE', #65, .T. ) ;
#55 = PLANE ( 'NONE',  #95 ) ;
#56 = ADVANCED_FACE ( 'NONE', ( #73 ), #93, .F. ) ;
#57 = EDGE_CURVE ( 'NONE', #184, #89, #82, .T. ) ;
#58 = CIRCLE ( 'NONE', #34, 1.060000000000000300 ) ;
#59 = DIRECTION ( 'NONE',  ( -1.000000000000000000, 0.0000000000000000000, 0.0000000000000000000 ) ) ;
#60 = VECTOR ( 'NONE', #193, 39.37007874015748100 ) ;
#61 = LINE ( 'NONE', #78, #45 ) ;
#62 = DIRECTION ( 'NONE',  ( 0.0000000000000000000, 0.0000000000000000000, 1.000000000000000000 ) ) ;
#63 = LOCAL_TIME ( 17, 14, 11.00000000000000000, #50 ) ;
#64 = PERSON ( 'UNSPECIFIED', 'UNSPECIFIED', 'UNSPECIFIED', ('UNSPECIFIED'), ('UNSPECIFIED'), ('UNSPECIFIED') ) ;
#65 = EDGE_LOOP ( 'NONE', ( #149, #127, #67, #105 ) ) ;
#66 = FACE_OUTER_BOUND ( 'NONE', #26, .T. ) ;
#67 = ORIENTED_EDGE ( 'NONE', *, *, #12, .F. ) ;
#68 = COORDINATED_UNIVERSAL_TIME_OFFSET ( 8, 0, .BEHIND. ) ;
#69 = CIRCLE ( 'NONE', #5, 1.060000000000000300 ) ;
#70 = CC_DESIGN_DATE_AND_TIME_ASSIGNMENT ( #120, #17, ( #41 ) ) ;
#71 = CARTESIAN_POINT ( 'NONE',  ( 6.490628035480972400E-017, -1.060000000000000100, 0.0000000000000000000 ) ) ;
#72 = LINE ( 'NONE', #197, #60 ) ;
#73 = FACE_OUTER_BOUND ( 'NONE', #136, .T. ) ;
#74 = DATE_AND_TIME ( #114, #33 ) ;
#75 =( GEOMETRIC_REPRESENTATION_CONTEXT ( 3 ) GLOBAL_UNCERTAINTY_ASSIGNED_CONTEXT ( ( #146 ) ) GLOBAL_UNIT_ASSIGNED_CONTEXT ( ( #9, #183, #10 ) ) REPRESENTATION_CONTEXT ( 'NONE', 'WORKASPACE' ) );
#76 = CARTESIAN_POINT ( 'NONE',  ( -3.491481338843133400E-015, -1.059999999999999800, 1.000000000000000000 ) ) ;
#77 = FACE_OUTER_BOUND ( 'NONE', #141, .T. ) ;
#78 = CARTESIAN_POINT ( 'NONE',  ( 1.000000000000000000, -1.059999999999999800, 0.0000000000000000000 ) ) ;
#79 = ADVANCED_BREP_SHAPE_REPRESENTATION ( '1in CORNER FILLER 16 Ga', ( #212, #144 ), #75 ) ;
#80 = COORDINATED_UNIVERSAL_TIME_OFFSET ( 8, 0, .BEHIND. ) ;
#81 = DIRECTION ( 'NONE',  ( 0.0000000000000000000, 0.0000000000000000000, 1.000000000000000000 ) ) ;
#82 = CIRCLE ( 'NONE', #151, 1.000000000000000000 ) ;
#83 = EDGE_CURVE ( 'NONE', #89, #172, #72, .T. ) ;
#84 = APPROVAL_ROLE ( '' ) ;
#85 = COORDINATED_UNIVERSAL_TIME_OFFSET ( 8, 0, .BEHIND. ) ;
#86 = APPROVAL ( #196, 'UNSPECIFIED' ) ;
#87 = DIRECTION ( 'NONE',  ( -1.000000000000000000, 0.0000000000000000000, 0.0000000000000000000 ) ) ;
#88 = DIRECTION ( 'NONE',  ( -0.0000000000000000000, -0.0000000000000000000, -1.000000000000000000 ) ) ;
#89 = VERTEX_POINT ( 'NONE', #199 ) ;
#90 = VERTEX_POINT ( 'NONE', #178 ) ;
#91 = PRODUCT ( '1in CORNER FILLER 16 Ga', '1in CORNER FILLER 16 Ga', '', ( #44 ) ) ;
#92 = DATE_AND_TIME ( #2, #133 ) ;
#93 = SPHERICAL_SURFACE ( 'NONE', #112, 1.000000000000000000 ) ;
#94 = LINE ( 'NONE', #28, #150 ) ;
#95 = AXIS2_PLACEMENT_3D ( 'NONE', #76, #42, #40 ) ;
#96 = APPROVAL_STATUS ( 'not_yet_approved' ) ;
#97 = ORIENTED_EDGE ( 'NONE', *, *, #179, .F. ) ;
#98 = ORIENTED_EDGE ( 'NONE', *, *, #12, .T. ) ;
#99 = VERTEX_POINT ( 'NONE', #176 ) ;
#100 = CARTESIAN_POINT ( 'NONE',  ( 6.490628035480972400E-017, -1.060000000000000100, 0.0000000000000000000 ) ) ;
#101 = PERSON_AND_ORGANIZATION ( #64, #154 ) ;
#102 = SPHERICAL_SURFACE ( 'NONE', #19, 1.060000000000000300 ) ;
#103 = CARTESIAN_POINT ( 'NONE',  ( -2.266190666325388000E-031, -1.060000000000000100, 6.490628035480972400E-017 ) ) ;
#104 = CC_DESIGN_APPROVAL ( #86, ( #41 ) ) ;
#105 = ORIENTED_EDGE ( 'NONE', *, *, #83, .F. ) ;
#106 = DIRECTION ( 'NONE',  ( 3.491481338843133400E-015, 0.0000000000000000000, -1.000000000000000000 ) ) ;
#107 = ORIENTED_EDGE ( 'NONE', *, *, #186, .F. ) ;
#108 = APPLICATION_CONTEXT ( 'configuration controlled 3d designs of mechanical parts and assemblies' ) ;
#109 = CARTESIAN_POINT ( 'NONE',  ( -2.266190666325388000E-031, -1.060000000000000100, 6.490628035480972400E-017 ) ) ;
#110 = ORIENTED_EDGE ( 'NONE', *, *, #186, .T. ) ;
#111 = FACE_OUTER_BOUND ( 'NONE', #115, .T. ) ;
#112 = AXIS2_PLACEMENT_3D ( 'NONE', #103, #27, #106 ) ;
#113 = ORIENTED_EDGE ( 'NONE', *, *, #210, .F. ) ;
#114 = CALENDAR_DATE ( 2016, 22, 12 ) ;
#115 = EDGE_LOOP ( 'NONE', ( #98, #143, #107 ) ) ;
#116 = CC_DESIGN_SECURITY_CLASSIFICATION ( #41, ( #208 ) ) ;
#117 = CARTESIAN_POINT ( 'NONE',  ( 3.348539555591562700E-031, -0.06000000000000004600, -9.590598461285396100E-017 ) ) ;
#118 = APPROVAL_PERSON_ORGANIZATION ( #163, #86, #31 ) ;
#119 = ORIENTED_EDGE ( 'NONE', *, *, #169, .T. ) ;
#120 = DATE_AND_TIME ( #13, #124 ) ;
#121 = DIRECTION ( 'NONE',  ( 1.000000000000000000, 0.0000000000000000000, 0.0000000000000000000 ) ) ;
#122 = DIRECTION ( 'NONE',  ( -0.0000000000000000000, 0.0000000000000000000, -1.000000000000000000 ) ) ;
#123 = ORIENTED_EDGE ( 'NONE', *, *, #57, .F. ) ;
#124 = LOCAL_TIME ( 17, 14, 11.00000000000000000, #68 ) ;
#125 = ADVANCED_FACE ( 'NONE', ( #77 ), #195, .F. ) ;
#126 = ORIENTED_EDGE ( 'NONE', *, *, #142, .F. ) ;
#127 = ORIENTED_EDGE ( 'NONE', *, *, #142, .T. ) ;
#128 = CALENDAR_DATE ( 2016, 22, 12 ) ;
#129 = ORIENTED_EDGE ( 'NONE', *, *, #131, .F. ) ;
#130 = PRODUCT_RELATED_PRODUCT_CATEGORY ( 'detail', '', ( #91 ) ) ;
#131 = EDGE_CURVE ( 'NONE', #89, #132, #53, .T. ) ;
#132 = VERTEX_POINT ( 'NONE', #211 ) ;
#133 = LOCAL_TIME ( 17, 14, 11.00000000000000000, #85 ) ;
#134 = ORIENTED_EDGE ( 'NONE', *, *, #210, .T. ) ;
#135 = DIRECTION ( 'NONE',  ( 0.0000000000000000000, 0.0000000000000000000, 1.000000000000000000 ) ) ;
#136 = EDGE_LOOP ( 'NONE', ( #119, #129, #123 ) ) ;
#137 = DIRECTION ( 'NONE',  ( 1.000000000000000000, 0.0000000000000000000, 3.491481338843133400E-015 ) ) ;
#138 = PERSON_AND_ORGANIZATION ( #64, #154 ) ;
#139 = ADVANCED_FACE ( 'NONE', ( #66 ), #168, .T. ) ;
#140 = PERSON_AND_ORGANIZATION_ROLE ( 'design_supplier' ) ;
#141 = EDGE_LOOP ( 'NONE', ( #110, #134, #173, #152 ) ) ;
#142 = EDGE_CURVE ( 'NONE', #132, #99, #61, .T. ) ;
#143 = ORIENTED_EDGE ( 'NONE', *, *, #179, .T. ) ;
#144 = AXIS2_PLACEMENT_3D ( 'NONE', #39, #164, #167 ) ;
#145 = DIRECTION ( 'NONE',  ( -1.000000000000000000, 0.0000000000000000000, -3.491481338843133400E-015 ) ) ;
#146 = UNCERTAINTY_MEASURE_WITH_UNIT (LENGTH_MEASURE( 1.000000000000000100E-005 ), #9, 'distance_accuracy_value', 'NONE');
#147 = PERSON_AND_ORGANIZATION_ROLE ( 'creator' ) ;
#148 = CLOSED_SHELL ( 'NONE', ( #36, #200, #56, #125, #139 ) ) ;
#149 = ORIENTED_EDGE ( 'NONE', *, *, #131, .T. ) ;
#150 = VECTOR ( 'NONE', #15, 39.37007874015748100 ) ;
#151 = AXIS2_PLACEMENT_3D ( 'NONE', #190, #187, #185 ) ;
#152 = ORIENTED_EDGE ( 'NONE', *, *, #83, .T. ) ;
#153 = DIRECTION ( 'NONE',  ( -0.0000000000000000000, 1.000000000000000000, -0.0000000000000000000 ) ) ;
#154 = ORGANIZATION ( 'UNSPECIFIED', 'UNSPECIFIED', '' ) ;
#155 = CC_DESIGN_PERSON_AND_ORGANIZATION_ASSIGNMENT ( #189, #159, ( #91 ) ) ;
#156 = CARTESIAN_POINT ( 'NONE',  ( 0.0000000000000000000, -1.059999999999999800, 0.0000000000000000000 ) ) ;
#157 = ORIENTED_EDGE ( 'NONE', *, *, #169, .F. ) ;
#158 = SECURITY_CLASSIFICATION_LEVEL ( 'unclassified' ) ;
#159 = PERSON_AND_ORGANIZATION_ROLE ( 'design_owner' ) ;
#160 = DIRECTION ( 'NONE',  ( 3.491481338843132600E-015, 0.0000000000000000000, -1.000000000000000000 ) ) ;
#161 = CARTESIAN_POINT ( 'NONE',  ( 6.490628035480972400E-017, -1.060000000000000100, 0.0000000000000000000 ) ) ;
#162 = APPROVAL_STATUS ( 'not_yet_approved' ) ;
#163 = PERSON_AND_ORGANIZATION ( #64, #154 ) ;
#164 = DIRECTION ( 'NONE',  ( 0.0000000000000000000, 0.0000000000000000000, 1.000000000000000000 ) ) ;
#165 = SHAPE_DEFINITION_REPRESENTATION ( #32, #79 ) ;
#166 = PRODUCT_DEFINITION ( 'UNKNOWN', '', #208, #4 ) ;
#167 = DIRECTION ( 'NONE',  ( 1.000000000000000000, 0.0000000000000000000, 0.0000000000000000000 ) ) ;
#168 = PLANE ( 'NONE',  #25 ) ;
#169 = EDGE_CURVE ( 'NONE', #184, #132, #18, .T. ) ;
#170 = CARTESIAN_POINT ( 'NONE',  ( -2.266190666325388000E-031, -1.060000000000000100, 6.490628035480972400E-017 ) ) ;
#171 = APPROVAL_PERSON_ORGANIZATION ( #138, #175, #1 ) ;
#172 = VERTEX_POINT ( 'NONE', #46 ) ;
#173 = ORIENTED_EDGE ( 'NONE', *, *, #57, .T. ) ;
#174 = APPROVAL_DATE_TIME ( #92, #3 ) ;
#175 = APPROVAL ( #96, 'UNSPECIFIED' ) ;
#176 = CARTESIAN_POINT ( 'NONE',  ( 1.060000000000000300, -1.059999999999999800, 0.0000000000000000000 ) ) ;
#177 = APPROVAL_DATE_TIME ( #201, #86 ) ;
#178 = CARTESIAN_POINT ( 'NONE',  ( 0.0000000000000000000, 0.0000000000000000000, 0.0000000000000000000 ) ) ;
#179 = EDGE_CURVE ( 'NONE', #99, #90, #58, .T. ) ;
#180 = COORDINATED_UNIVERSAL_TIME_OFFSET ( 8, 0, .BEHIND. ) ;
#181 = DIRECTION ( 'NONE',  ( -3.491481338843133400E-015, 0.0000000000000000000, 1.000000000000000000 ) ) ;
#182 = CC_DESIGN_APPROVAL ( #175, ( #166 ) ) ;
#183 =( NAMED_UNIT ( * ) PLANE_ANGLE_UNIT ( ) SI_UNIT ( $, .RADIAN. ) );
#184 = VERTEX_POINT ( 'NONE', #117 ) ;
#185 = DIRECTION ( 'NONE',  ( 3.491481338843133400E-015, 0.0000000000000000000, -1.000000000000000000 ) ) ;
#186 = EDGE_CURVE ( 'NONE', #172, #90, #43, .T. ) ;
#187 = DIRECTION ( 'NONE',  ( 1.000000000000000000, 0.0000000000000000000, 3.491481338843133400E-015 ) ) ;
#188 = CARTESIAN_POINT ( 'NONE',  ( -2.266190666325388000E-031, -1.060000000000000100, 6.490628035480972400E-017 ) ) ;
#189 = PERSON_AND_ORGANIZATION ( #64, #154 ) ;
#190 = CARTESIAN_POINT ( 'NONE',  ( -2.266190666325388000E-031, -1.060000000000000100, 6.490628035480972400E-017 ) ) ;
#191 = APPLICATION_PROTOCOL_DEFINITION ( 'international standard', 'config_control_design', 1994, #108 ) ;
#192 = CALENDAR_DATE ( 2016, 22, 12 ) ;
#193 = DIRECTION ( 'NONE',  ( -3.491481338843133000E-015, 0.0000000000000000000, 1.000000000000000000 ) ) ;
#194 = CC_DESIGN_PERSON_AND_ORGANIZATION_ASSIGNMENT ( #29, #147, ( #166 ) ) ;
#195 = PLANE ( 'NONE',  #209 ) ;
#196 = APPROVAL_STATUS ( 'not_yet_approved' ) ;
#197 = CARTESIAN_POINT ( 'NONE',  ( -3.491481338843133400E-015, -1.059999999999999800, 1.000000000000000000 ) ) ;
#198 = DATE_AND_TIME ( #128, #205 ) ;
#199 = CARTESIAN_POINT ( 'NONE',  ( -3.491481338843133400E-015, -1.059999999999999800, 1.000000000000000000 ) ) ;
#200 = ADVANCED_FACE ( 'NONE', ( #54 ), #55, .F. ) ;
#201 = DATE_AND_TIME ( #192, #63 ) ;
#202 = APPLICATION_PROTOCOL_DEFINITION ( 'international standard', 'config_control_design', 1994, #37 ) ;
#203 = CC_DESIGN_DATE_AND_TIME_ASSIGNMENT ( #198, #14, ( #166 ) ) ;
#204 = LENGTH_MEASURE_WITH_UNIT ( LENGTH_MEASURE( 0.02539999999999999900 ), #7 );
#205 = LOCAL_TIME ( 17, 14, 11.00000000000000000, #180 ) ;
#206 = DIRECTION ( 'NONE',  ( 3.491481338843133000E-015, 0.0000000000000000000, -1.000000000000000000 ) ) ;
#207 = APPROVAL_PERSON_ORGANIZATION ( #213, #3, #84 ) ;
#208 = PRODUCT_DEFINITION_FORMATION_WITH_SPECIFIED_SOURCE ( 'ANY', '', #91, .NOT_KNOWN. ) ;
#209 = AXIS2_PLACEMENT_3D ( 'NONE', #170, #38, #206 ) ;
#210 = EDGE_CURVE ( 'NONE', #90, #184, #94, .T. ) ;
#211 = CARTESIAN_POINT ( 'NONE',  ( 1.000000000000000000, -1.059999999999999800, 0.0000000000000000000 ) ) ;
#212 = MANIFOLD_SOLID_BREP ( 'Revolve1', #148 ) ;
#213 = PERSON_AND_ORGANIZATION ( #64, #154 ) ;
ENDSEC;
END-ISO-10303-21;
