ISO-10303-21;
HEADER;
FILE_DESCRIPTION (( 'STEP AP203' ),
    '1' );
FILE_NAME ('100205.STEP',
    '2017-01-06T01:37:51',
    ( 'temp' ),
    ( '' ),
    'SwSTEP 2.0',
    'SolidWorks 2016',
    '' );
FILE_SCHEMA (( 'CONFIG_CONTROL_DESIGN' ));
ENDSEC;

DATA;
#1 = ORIENTED_EDGE ( 'NONE', *, *, #41, .F. ) ;
#2 = ADVANCED_BREP_SHAPE_REPRESENTATION ( '100205', ( #145, #117 ), #5 ) ;
#3 = DIRECTION ( 'NONE',  ( 3.263022926673622300E-030, -1.000000000000000000, -9.345669101455920500E-016 ) ) ;
#4 = DIRECTION ( 'NONE',  ( -1.000000000000000000, 0.0000000000000000000, -3.491481338843133400E-015 ) ) ;
#5 =( GEOMETRIC_REPRESENTATION_CONTEXT ( 3 ) GLOBAL_UNCERTAINTY_ASSIGNED_CONTEXT ( ( #118 ) ) GLOBAL_UNIT_ASSIGNED_CONTEXT ( ( #120, #150, #151 ) ) REPRESENTATION_CONTEXT ( 'NONE', 'WORKASPACE' ) );
#6 = EDGE_CURVE ( 'NONE', #123, #125, #213, .T. ) ;
#7 = DATE_TIME_ROLE ( 'creation_date' ) ;
#8 = SHAPE_DEFINITION_REPRESENTATION ( #24, #2 ) ;
#9 = DATE_AND_TIME ( #171, #122 ) ;
#10 = CALENDAR_DATE ( 2017, 5, 1 ) ;
#11 = ADVANCED_FACE ( 'NONE', ( #65 ), #30, .T. ) ;
#12 = CC_DESIGN_APPROVAL ( #197, ( #32 ) ) ;
#13 = CC_DESIGN_SECURITY_CLASSIFICATION ( #108, ( #95 ) ) ;
#14 = CARTESIAN_POINT ( 'NONE',  ( 0.0000000000000000000, 0.0000000000000000000, 0.0000000000000000000 ) ) ;
#15 = DIRECTION ( 'NONE',  ( -1.000000000000000000, 0.0000000000000000000, 0.0000000000000000000 ) ) ;
#16 = FACE_OUTER_BOUND ( 'NONE', #56, .T. ) ;
#17 = PRODUCT_RELATED_PRODUCT_CATEGORY ( 'detail', '', ( #191 ) ) ;
#18 = DIRECTION ( 'NONE',  ( -0.0000000000000000000, 0.0000000000000000000, -1.000000000000000000 ) ) ;
#19 = CARTESIAN_POINT ( 'NONE',  ( -1.763780471432495500E-031, -0.8250000000000000700, 5.051668046482832500E-017 ) ) ;
#20 = ORIENTED_EDGE ( 'NONE', *, *, #107, .F. ) ;
#21 = ORIENTED_EDGE ( 'NONE', *, *, #87, .F. ) ;
#22 = APPLICATION_CONTEXT ( 'configuration controlled 3d designs of mechanical parts and assemblies' ) ;
#23 = VERTEX_POINT ( 'NONE', #114 ) ;
#24 = PRODUCT_DEFINITION_SHAPE ( 'NONE', 'NONE',  #32 ) ;
#25 = PERSON_AND_ORGANIZATION ( #59, #182 ) ;
#26 = ADVANCED_FACE ( 'NONE', ( #147 ), #92, .F. ) ;
#27 = EDGE_LOOP ( 'NONE', ( #158, #135, #121, #106 ) ) ;
#28 = PERSON_AND_ORGANIZATION ( #59, #182 ) ;
#29 = DIRECTION ( 'NONE',  ( 1.000000000000000000, 0.0000000000000000000, 3.491481338843133000E-015 ) ) ;
#30 = PLANE ( 'NONE',  #141 ) ;
#31 = CARTESIAN_POINT ( 'NONE',  ( 5.051668046482832500E-017, -0.8250000000000000700, 0.0000000000000000000 ) ) ;
#32 = PRODUCT_DEFINITION ( 'UNKNOWN', '', #95, #166 ) ;
#33 = DIMENSIONAL_EXPONENTS ( 1.000000000000000000, 0.0000000000000000000, 0.0000000000000000000, 0.0000000000000000000, 0.0000000000000000000, 0.0000000000000000000, 0.0000000000000000000 ) ;
#34 = CIRCLE ( 'NONE', #68, 0.7500000000000001100 ) ;
#35 = CC_DESIGN_PERSON_AND_ORGANIZATION_ASSIGNMENT ( #37, #88, ( #191 ) ) ;
#36 =( LENGTH_UNIT ( ) NAMED_UNIT ( * ) SI_UNIT ( $, .METRE. ) );
#37 = PERSON_AND_ORGANIZATION ( #59, #182 ) ;
#38 = ORIENTED_EDGE ( 'NONE', *, *, #168, .T. ) ;
#39 = ORIENTED_EDGE ( 'NONE', *, *, #164, .F. ) ;
#40 = EDGE_LOOP ( 'NONE', ( #201, #153, #110, #21 ) ) ;
#41 = EDGE_CURVE ( 'NONE', #123, #152, #176, .T. ) ;
#42 = VECTOR ( 'NONE', #98, 39.37007874015748100 ) ;
#43 = COORDINATED_UNIVERSAL_TIME_OFFSET ( 8, 0, .BEHIND. ) ;
#44 = VECTOR ( 'NONE', #206, 39.37007874015748100 ) ;
#45 = AXIS2_PLACEMENT_3D ( 'NONE', #67, #79, #61 ) ;
#46 = DATE_AND_TIME ( #130, #210 ) ;
#47 = DIRECTION ( 'NONE',  ( -3.491481338843133000E-015, 0.0000000000000000000, 1.000000000000000000 ) ) ;
#48 = DIRECTION ( 'NONE',  ( 3.491481338843133000E-015, 0.0000000000000000000, -1.000000000000000000 ) ) ;
#49 = APPROVAL_STATUS ( 'not_yet_approved' ) ;
#50 = EDGE_LOOP ( 'NONE', ( #139, #134, #20 ) ) ;
#51 = APPLICATION_PROTOCOL_DEFINITION ( 'international standard', 'config_control_design', 1994, #70 ) ;
#52 = DIRECTION ( 'NONE',  ( 0.0000000000000000000, 0.0000000000000000000, 1.000000000000000000 ) ) ;
#53 = PERSON_AND_ORGANIZATION ( #59, #182 ) ;
#54 = PERSON_AND_ORGANIZATION_ROLE ( 'creator' ) ;
#55 = APPROVAL ( #187, 'UNSPECIFIED' ) ;
#56 = EDGE_LOOP ( 'NONE', ( #90, #38, #64 ) ) ;
#57 = APPROVAL_DATE_TIME ( #165, #204 ) ;
#58 = CC_DESIGN_PERSON_AND_ORGANIZATION_ASSIGNMENT ( #28, #54, ( #95 ) ) ;
#59 = PERSON ( 'UNSPECIFIED', 'UNSPECIFIED', 'UNSPECIFIED', ('UNSPECIFIED'), ('UNSPECIFIED'), ('UNSPECIFIED') ) ;
#60 = CIRCLE ( 'NONE', #184, 0.8250000000000000700 ) ;
#61 = DIRECTION ( 'NONE',  ( 0.0000000000000000000, 0.0000000000000000000, 1.000000000000000000 ) ) ;
#62 = DIRECTION ( 'NONE',  ( 0.0000000000000000000, 0.0000000000000000000, 1.000000000000000000 ) ) ;
#63 = CARTESIAN_POINT ( 'NONE',  ( 0.0000000000000000000, 0.0000000000000000000, 0.0000000000000000000 ) ) ;
#64 = ORIENTED_EDGE ( 'NONE', *, *, #112, .F. ) ;
#65 = FACE_OUTER_BOUND ( 'NONE', #40, .T. ) ;
#66 = CARTESIAN_POINT ( 'NONE',  ( -2.618611004132350000E-015, -0.8249999999999999600, 0.7500000000000001100 ) ) ;
#67 = CARTESIAN_POINT ( 'NONE',  ( 0.0000000000000000000, -0.8249999999999999600, 0.0000000000000000000 ) ) ;
#68 = AXIS2_PLACEMENT_3D ( 'NONE', #207, #97, #105 ) ;
#69 = APPROVAL_DATE_TIME ( #46, #55 ) ;
#70 = APPLICATION_CONTEXT ( 'configuration controlled 3d designs of mechanical parts and assemblies' ) ;
#71 = SECURITY_CLASSIFICATION_LEVEL ( 'unclassified' ) ;
#72 = PERSON_AND_ORGANIZATION ( #59, #182 ) ;
#73 = PERSON_AND_ORGANIZATION ( #59, #182 ) ;
#74 = PERSON_AND_ORGANIZATION ( #59, #182 ) ;
#75 = VECTOR ( 'NONE', #3, 39.37007874015748100 ) ;
#76 = LOCAL_TIME ( 17, 37, 51.00000000000000000, #115 ) ;
#77 = CARTESIAN_POINT ( 'NONE',  ( -1.763780471432495500E-031, -0.8250000000000000700, 5.051668046482832500E-017 ) ) ;
#78 = CIRCLE ( 'NONE', #45, 0.8249999999999999600 ) ;
#79 = DIRECTION ( 'NONE',  ( -0.0000000000000000000, 1.000000000000000000, -0.0000000000000000000 ) ) ;
#80 = CARTESIAN_POINT ( 'NONE',  ( -1.763780471432495500E-031, -0.8250000000000000700, 5.051668046482832500E-017 ) ) ;
#81 = CC_DESIGN_DATE_AND_TIME_ASSIGNMENT ( #104, #7, ( #32 ) ) ;
#82 = LINE ( 'NONE', #169, #42 ) ;
#83 = ORIENTED_EDGE ( 'NONE', *, *, #195, .T. ) ;
#84 = DATE_AND_TIME ( #10, #76 ) ;
#85 = APPROVAL_ROLE ( '' ) ;
#86 = PERSON_AND_ORGANIZATION ( #59, #182 ) ;
#87 = EDGE_CURVE ( 'NONE', #157, #111, #186, .T. ) ;
#88 = PERSON_AND_ORGANIZATION_ROLE ( 'design_owner' ) ;
#89 = DATE_TIME_ROLE ( 'classification_date' ) ;
#90 = ORIENTED_EDGE ( 'NONE', *, *, #164, .T. ) ;
#91 = LOCAL_TIME ( 17, 37, 51.00000000000000000, #43 ) ;
#92 = SPHERICAL_SURFACE ( 'NONE', #131, 0.7500000000000001100 ) ;
#93 = COORDINATED_UNIVERSAL_TIME_OFFSET ( 8, 0, .BEHIND. ) ;
#94 = COORDINATED_UNIVERSAL_TIME_OFFSET ( 8, 0, .BEHIND. ) ;
#95 = PRODUCT_DEFINITION_FORMATION_WITH_SPECIFIED_SOURCE ( 'ANY', '', #191, .NOT_KNOWN. ) ;
#96 = CARTESIAN_POINT ( 'NONE',  ( 0.0000000000000000000, 0.0000000000000000000, 0.0000000000000000000 ) ) ;
#97 = DIRECTION ( 'NONE',  ( -0.0000000000000000000, -0.0000000000000000000, -1.000000000000000000 ) ) ;
#98 = DIRECTION ( 'NONE',  ( 1.000000000000000000, 0.0000000000000000000, 0.0000000000000000000 ) ) ;
#99 = DIRECTION ( 'NONE',  ( 3.491481338843133000E-015, 0.0000000000000000000, -1.000000000000000000 ) ) ;
#100 = FACE_OUTER_BOUND ( 'NONE', #137, .T. ) ;
#101 = APPROVAL_PERSON_ORGANIZATION ( #86, #204, #85 ) ;
#102 = CIRCLE ( 'NONE', #178, 0.8250000000000000700 ) ;
#103 = DIRECTION ( 'NONE',  ( 0.0000000000000000000, 0.0000000000000000000, 1.000000000000000000 ) ) ;
#104 = DATE_AND_TIME ( #162, #91 ) ;
#105 = DIRECTION ( 'NONE',  ( -1.000000000000000000, 0.0000000000000000000, 0.0000000000000000000 ) ) ;
#106 = ORIENTED_EDGE ( 'NONE', *, *, #41, .T. ) ;
#107 = EDGE_CURVE ( 'NONE', #111, #123, #196, .T. ) ;
#108 = SECURITY_CLASSIFICATION ( '', '', #71 ) ;
#109 = LENGTH_MEASURE_WITH_UNIT ( LENGTH_MEASURE( 0.02539999999999999900 ), #36 );
#110 = ORIENTED_EDGE ( 'NONE', *, *, #203, .F. ) ;
#111 = VERTEX_POINT ( 'NONE', #181 ) ;
#112 = EDGE_CURVE ( 'NONE', #152, #157, #102, .T. ) ;
#113 = CARTESIAN_POINT ( 'NONE',  ( -2.618611004132350000E-015, -0.8249999999999999600, 0.7500000000000001100 ) ) ;
#114 = CARTESIAN_POINT ( 'NONE',  ( 0.8249999999999999600, -0.8249999999999999600, 0.0000000000000000000 ) ) ;
#115 = COORDINATED_UNIVERSAL_TIME_OFFSET ( 8, 0, .BEHIND. ) ;
#116 = DIRECTION ( 'NONE',  ( 3.491481338843133000E-015, 0.0000000000000000000, -1.000000000000000000 ) ) ;
#117 = AXIS2_PLACEMENT_3D ( 'NONE', #96, #52, #188 ) ;
#118 = UNCERTAINTY_MEASURE_WITH_UNIT (LENGTH_MEASURE( 1.000000000000000100E-005 ), #120, 'distance_accuracy_value', 'NONE');
#119 = CALENDAR_DATE ( 2017, 5, 1 ) ;
#120 =( CONVERSION_BASED_UNIT ( 'INCH', #109 ) LENGTH_UNIT ( ) NAMED_UNIT ( #33 ) );
#121 = ORIENTED_EDGE ( 'NONE', *, *, #107, .T. ) ;
#122 = LOCAL_TIME ( 17, 37, 51.00000000000000000, #93 ) ;
#123 = VERTEX_POINT ( 'NONE', #66 ) ;
#124 = PLANE ( 'NONE',  #177 ) ;
#125 = VERTEX_POINT ( 'NONE', #146 ) ;
#126 = DIRECTION ( 'NONE',  ( -1.000000000000000000, 0.0000000000000000000, -3.491481338843133000E-015 ) ) ;
#127 = CARTESIAN_POINT ( 'NONE',  ( -1.763780471432495500E-031, -0.8250000000000000700, 5.051668046482832500E-017 ) ) ;
#128 = AXIS2_PLACEMENT_3D ( 'NONE', #129, #205, #62 ) ;
#129 = CARTESIAN_POINT ( 'NONE',  ( 0.0000000000000000000, -0.8249999999999999600, 0.0000000000000000000 ) ) ;
#130 = CALENDAR_DATE ( 2017, 5, 1 ) ;
#131 = AXIS2_PLACEMENT_3D ( 'NONE', #127, #126, #48 ) ;
#132 = CARTESIAN_POINT ( 'NONE',  ( 5.051668046482832500E-017, -0.8250000000000000700, 0.0000000000000000000 ) ) ;
#133 = MECHANICAL_CONTEXT ( 'NONE', #70, 'mechanical' ) ;
#134 = ORIENTED_EDGE ( 'NONE', *, *, #6, .F. ) ;
#135 = ORIENTED_EDGE ( 'NONE', *, *, #87, .T. ) ;
#136 = AXIS2_PLACEMENT_3D ( 'NONE', #19, #183, #142 ) ;
#137 = EDGE_LOOP ( 'NONE', ( #159, #83, #39, #1 ) ) ;
#138 = ADVANCED_FACE ( 'NONE', ( #16 ), #200, .T. ) ;
#139 = ORIENTED_EDGE ( 'NONE', *, *, #203, .T. ) ;
#140 = APPLICATION_PROTOCOL_DEFINITION ( 'international standard', 'config_control_design', 1994, #22 ) ;
#141 = AXIS2_PLACEMENT_3D ( 'NONE', #31, #18, #15 ) ;
#142 = DIRECTION ( 'NONE',  ( 3.491481338843133000E-015, 0.0000000000000000000, -1.000000000000000000 ) ) ;
#143 = ADVANCED_FACE ( 'NONE', ( #180 ), #161, .F. ) ;
#144 = CC_DESIGN_APPROVAL ( #55, ( #95 ) ) ;
#145 = MANIFOLD_SOLID_BREP ( 'Revolve1', #167 ) ;
#146 = CARTESIAN_POINT ( 'NONE',  ( 0.7500000000000001100, -0.8249999999999999600, 0.0000000000000000000 ) ) ;
#147 = FACE_OUTER_BOUND ( 'NONE', #50, .T. ) ;
#148 = PERSON_AND_ORGANIZATION_ROLE ( 'creator' ) ;
#149 = COORDINATED_UNIVERSAL_TIME_OFFSET ( 8, 0, .BEHIND. ) ;
#150 =( NAMED_UNIT ( * ) PLANE_ANGLE_UNIT ( ) SI_UNIT ( $, .RADIAN. ) );
#151 =( NAMED_UNIT ( * ) SI_UNIT ( $, .STERADIAN. ) SOLID_ANGLE_UNIT ( ) );
#152 = VERTEX_POINT ( 'NONE', #160 ) ;
#153 = ORIENTED_EDGE ( 'NONE', *, *, #195, .F. ) ;
#154 = DIRECTION ( 'NONE',  ( -0.0000000000000000000, 1.000000000000000000, 0.0000000000000000000 ) ) ;
#155 = CC_DESIGN_APPROVAL ( #204, ( #108 ) ) ;
#156 = APPROVAL_ROLE ( '' ) ;
#157 = VERTEX_POINT ( 'NONE', #14 ) ;
#158 = ORIENTED_EDGE ( 'NONE', *, *, #112, .T. ) ;
#159 = ORIENTED_EDGE ( 'NONE', *, *, #6, .T. ) ;
#160 = CARTESIAN_POINT ( 'NONE',  ( -2.880472104545584600E-015, -0.8249999999999999600, 0.8249999999999999600 ) ) ;
#161 = PLANE ( 'NONE',  #173 ) ;
#162 = CALENDAR_DATE ( 2017, 5, 1 ) ;
#163 = CARTESIAN_POINT ( 'NONE',  ( -2.618611004132350000E-015, -0.8249999999999999600, 0.7500000000000001100 ) ) ;
#164 = EDGE_CURVE ( 'NONE', #152, #23, #78, .T. ) ;
#165 = DATE_AND_TIME ( #119, #211 ) ;
#166 = DESIGN_CONTEXT ( 'detailed design', #22, 'design' ) ;
#167 = CLOSED_SHELL ( 'NONE', ( #138, #175, #26, #143, #11 ) ) ;
#168 = EDGE_CURVE ( 'NONE', #23, #157, #60, .T. ) ;
#169 = CARTESIAN_POINT ( 'NONE',  ( 0.7500000000000001100, -0.8249999999999999600, 0.0000000000000000000 ) ) ;
#170 = PERSON_AND_ORGANIZATION_ROLE ( 'design_supplier' ) ;
#171 = CALENDAR_DATE ( 2017, 5, 1 ) ;
#172 = APPROVAL_DATE_TIME ( #84, #197 ) ;
#173 = AXIS2_PLACEMENT_3D ( 'NONE', #80, #29, #99 ) ;
#174 = CC_DESIGN_DATE_AND_TIME_ASSIGNMENT ( #9, #89, ( #108 ) ) ;
#175 = ADVANCED_FACE ( 'NONE', ( #100 ), #124, .F. ) ;
#176 = LINE ( 'NONE', #113, #44 ) ;
#177 = AXIS2_PLACEMENT_3D ( 'NONE', #163, #154, #103 ) ;
#178 = AXIS2_PLACEMENT_3D ( 'NONE', #198, #4, #116 ) ;
#179 = DIRECTION ( 'NONE',  ( 1.000000000000000000, 0.0000000000000000000, 3.491481338843133000E-015 ) ) ;
#180 = FACE_OUTER_BOUND ( 'NONE', #27, .T. ) ;
#181 = CARTESIAN_POINT ( 'NONE',  ( 2.447267195005217100E-031, -0.07500000000000002500, -7.009251826091941400E-017 ) ) ;
#182 = ORGANIZATION ( 'UNSPECIFIED', 'UNSPECIFIED', '' ) ;
#183 = DIRECTION ( 'NONE',  ( 1.000000000000000000, 0.0000000000000000000, 3.491481338843133400E-015 ) ) ;
#184 = AXIS2_PLACEMENT_3D ( 'NONE', #132, #199, #190 ) ;
#185 = APPROVAL_ROLE ( '' ) ;
#186 = LINE ( 'NONE', #63, #75 ) ;
#187 = APPROVAL_STATUS ( 'not_yet_approved' ) ;
#188 = DIRECTION ( 'NONE',  ( 1.000000000000000000, 0.0000000000000000000, 0.0000000000000000000 ) ) ;
#189 = CC_DESIGN_PERSON_AND_ORGANIZATION_ASSIGNMENT ( #74, #170, ( #95 ) ) ;
#190 = DIRECTION ( 'NONE',  ( -1.000000000000000000, 0.0000000000000000000, 0.0000000000000000000 ) ) ;
#191 = PRODUCT ( '100205', '100205', '', ( #133 ) ) ;
#192 = CC_DESIGN_PERSON_AND_ORGANIZATION_ASSIGNMENT ( #72, #193, ( #108 ) ) ;
#193 = PERSON_AND_ORGANIZATION_ROLE ( 'classification_officer' ) ;
#194 = APPROVAL_PERSON_ORGANIZATION ( #53, #55, #156 ) ;
#195 = EDGE_CURVE ( 'NONE', #125, #23, #82, .T. ) ;
#196 = CIRCLE ( 'NONE', #136, 0.7500000000000001100 ) ;
#197 = APPROVAL ( #49, 'UNSPECIFIED' ) ;
#198 = CARTESIAN_POINT ( 'NONE',  ( -1.763780471432495500E-031, -0.8250000000000000700, 5.051668046482832500E-017 ) ) ;
#199 = DIRECTION ( 'NONE',  ( 0.0000000000000000000, 0.0000000000000000000, 1.000000000000000000 ) ) ;
#200 = SPHERICAL_SURFACE ( 'NONE', #202, 0.8250000000000000700 ) ;
#201 = ORIENTED_EDGE ( 'NONE', *, *, #168, .F. ) ;
#202 = AXIS2_PLACEMENT_3D ( 'NONE', #77, #179, #47 ) ;
#203 = EDGE_CURVE ( 'NONE', #111, #125, #34, .T. ) ;
#204 = APPROVAL ( #208, 'UNSPECIFIED' ) ;
#205 = DIRECTION ( 'NONE',  ( -0.0000000000000000000, 1.000000000000000000, -0.0000000000000000000 ) ) ;
#206 = DIRECTION ( 'NONE',  ( -3.491481338843133000E-015, 0.0000000000000000000, 1.000000000000000000 ) ) ;
#207 = CARTESIAN_POINT ( 'NONE',  ( 5.051668046482832500E-017, -0.8250000000000000700, 0.0000000000000000000 ) ) ;
#208 = APPROVAL_STATUS ( 'not_yet_approved' ) ;
#209 = CC_DESIGN_PERSON_AND_ORGANIZATION_ASSIGNMENT ( #25, #148, ( #32 ) ) ;
#210 = LOCAL_TIME ( 17, 37, 51.00000000000000000, #94 ) ;
#211 = LOCAL_TIME ( 17, 37, 51.00000000000000000, #149 ) ;
#212 = APPROVAL_PERSON_ORGANIZATION ( #73, #197, #185 ) ;
#213 = CIRCLE ( 'NONE', #128, 0.7500000000000001100 ) ;
ENDSEC;
END-ISO-10303-21;
