ISO-10303-21;
HEADER;
FILE_DESCRIPTION (( 'STEP AP214' ),
    '1' );
FILE_NAME ('100204.STEP',
    '2016-05-20T15:26:15',
    ( 'temp' ),
    ( '' ),
    'SwSTEP 2.0',
    'SolidWorks 2016',
    '' );
FILE_SCHEMA (( 'AUTOMOTIVE_DESIGN' ));
ENDSEC;

DATA;
#1 = FACE_OUTER_BOUND ( 'NONE', #139, .T. ) ;
#2 =( NAMED_UNIT ( * ) SI_UNIT ( $, .STERADIAN. ) SOLID_ANGLE_UNIT ( ) );
#3 = DIRECTION ( 'NONE',  ( -0.0000000000000000000, 0.0000000000000000000, -1.000000000000000000 ) ) ;
#4 = ORIENTED_EDGE ( 'NONE', *, *, #85, .F. ) ;
#5 = PRODUCT_CONTEXT ( 'NONE', #88, 'mechanical' ) ;
#6 = SPHERICAL_SURFACE ( 'NONE', #118, 0.8050000000000000500 ) ;
#7 = ORIENTED_EDGE ( 'NONE', *, *, #119, .T. ) ;
#8 = DIRECTION ( 'NONE',  ( 0.0000000000000000000, 0.0000000000000000000, 1.000000000000000000 ) ) ;
#9 = AXIS2_PLACEMENT_3D ( 'NONE', #20, #107, #8 ) ;
#10 = SURFACE_STYLE_FILL_AREA ( #72 ) ;
#11 = EDGE_CURVE ( 'NONE', #158, #32, #126, .T. ) ;
#12 = ADVANCED_FACE ( 'NONE', ( #71 ), #53, .F. ) ;
#13 = ORIENTED_EDGE ( 'NONE', *, *, #109, .T. ) ;
#14 = DIRECTION ( 'NONE',  ( -0.0000000000000000000, 1.000000000000000000, -0.0000000000000000000 ) ) ;
#15 = DIRECTION ( 'NONE',  ( 3.491481338843133000E-015, 0.0000000000000000000, -1.000000000000000000 ) ) ;
#16 = FACE_OUTER_BOUND ( 'NONE', #31, .T. ) ;
#17 = AXIS2_PLACEMENT_3D ( 'NONE', #68, #14, #136 ) ;
#18 = DIRECTION ( 'NONE',  ( 0.0000000000000000000, 0.0000000000000000000, 1.000000000000000000 ) ) ;
#19 = AXIS2_PLACEMENT_3D ( 'NONE', #34, #117, #82 ) ;
#20 = CARTESIAN_POINT ( 'NONE',  ( 0.0000000000000000000, -0.8049999999999998300, 0.0000000000000000000 ) ) ;
#21 = LINE ( 'NONE', #113, #169 ) ;
#22 = AXIS2_PLACEMENT_3D ( 'NONE', #48, #115, #92 ) ;
#23 = ORIENTED_EDGE ( 'NONE', *, *, #91, .F. ) ;
#24 = DIRECTION ( 'NONE',  ( -1.000000000000000000, 0.0000000000000000000, 0.0000000000000000000 ) ) ;
#25 = FILL_AREA_STYLE_COLOUR ( '', #156 ) ;
#26 = DIRECTION ( 'NONE',  ( 0.0000000000000000000, 0.0000000000000000000, 1.000000000000000000 ) ) ;
#27 =( NAMED_UNIT ( * ) SI_UNIT ( $, .STERADIAN. ) SOLID_ANGLE_UNIT ( ) );
#28 =( NAMED_UNIT ( * ) PLANE_ANGLE_UNIT ( ) SI_UNIT ( $, .RADIAN. ) );
#29 = ORIENTED_EDGE ( 'NONE', *, *, #11, .F. ) ;
#30 = CARTESIAN_POINT ( 'NONE',  ( -2.810642477768722100E-015, -0.8049999999999998300, 0.8050000000000000500 ) ) ;
#31 = EDGE_LOOP ( 'NONE', ( #29, #4, #51, #78 ) ) ;
#32 = VERTEX_POINT ( 'NONE', #54 ) ;
#33 = DIMENSIONAL_EXPONENTS ( 1.000000000000000000, 0.0000000000000000000, 0.0000000000000000000, 0.0000000000000000000, 0.0000000000000000000, 0.0000000000000000000, 0.0000000000000000000 ) ;
#34 = CARTESIAN_POINT ( 'NONE',  ( 4.929203366568098100E-017, -0.8050000000000000500, 0.0000000000000000000 ) ) ;
#35 = DIRECTION ( 'NONE',  ( 3.491481338843133000E-015, 0.0000000000000000000, -1.000000000000000000 ) ) ;
#36 = CARTESIAN_POINT ( 'NONE',  ( 0.7500000000000002200, -0.8049999999999998300, 0.0000000000000000000 ) ) ;
#37 = CARTESIAN_POINT ( 'NONE',  ( -2.618611004132350400E-015, -0.8049999999999998300, 0.7500000000000002200 ) ) ;
#38 =( GEOMETRIC_REPRESENTATION_CONTEXT ( 3 ) GLOBAL_UNCERTAINTY_ASSIGNED_CONTEXT ( ( #175 ) ) GLOBAL_UNIT_ASSIGNED_CONTEXT ( ( #40, #130, #27 ) ) REPRESENTATION_CONTEXT ( 'NONE', 'WORKASPACE' ) );
#39 = VECTOR ( 'NONE', #150, 39.37007874015748100 ) ;
#40 =( CONVERSION_BASED_UNIT ( 'INCH', #66 ) LENGTH_UNIT ( ) NAMED_UNIT ( #182 ) );
#41 = VERTEX_POINT ( 'NONE', #96 ) ;
#42 =( LENGTH_UNIT ( ) NAMED_UNIT ( * ) SI_UNIT ( $, .METRE. ) );
#43 = ORIENTED_EDGE ( 'NONE', *, *, #60, .F. ) ;
#44 = PRESENTATION_STYLE_ASSIGNMENT (( #167 ) ) ;
#45 = VERTEX_POINT ( 'NONE', #37 ) ;
#46 = ADVANCED_FACE ( 'NONE', ( #16 ), #127, .T. ) ;
#47 = CIRCLE ( 'NONE', #155, 0.7500000000000002200 ) ;
#48 = CARTESIAN_POINT ( 'NONE',  ( -1.721022156973526300E-031, -0.8050000000000000500, 4.929203366568098100E-017 ) ) ;
#49 = EDGE_CURVE ( 'NONE', #41, #135, #90, .T. ) ;
#50 = CARTESIAN_POINT ( 'NONE',  ( -1.721022156973526300E-031, -0.8050000000000000500, 4.929203366568098100E-017 ) ) ;
#51 = ORIENTED_EDGE ( 'NONE', *, *, #49, .F. ) ;
#52 = CARTESIAN_POINT ( 'NONE',  ( 0.0000000000000000000, 0.0000000000000000000, 0.0000000000000000000 ) ) ;
#53 = PLANE ( 'NONE',  #114 ) ;
#54 = CARTESIAN_POINT ( 'NONE',  ( 0.0000000000000000000, 0.0000000000000000000, 0.0000000000000000000 ) ) ;
#55 = ORIENTED_EDGE ( 'NONE', *, *, #11, .T. ) ;
#56 = CIRCLE ( 'NONE', #17, 0.7500000000000002200 ) ;
#57 = SURFACE_STYLE_USAGE ( .BOTH. , #162 ) ;
#58 =( CONVERSION_BASED_UNIT ( 'INCH', #178 ) LENGTH_UNIT ( ) NAMED_UNIT ( #153 ) );
#59 = COLOUR_RGB ( '',0.5294117647058823600, 0.5490196078431373000, 0.5490196078431373000 ) ;
#60 = EDGE_CURVE ( 'NONE', #41, #45, #47, .T. ) ;
#61 = ORIENTED_EDGE ( 'NONE', *, *, #140, .T. ) ;
#62 = PRODUCT_DEFINITION_CONTEXT ( 'detailed design', #87, 'design' ) ;
#63 = EDGE_LOOP ( 'NONE', ( #13, #144, #111, #86 ) ) ;
#64 = ADVANCED_FACE ( 'NONE', ( #129 ), #70, .F. ) ;
#65 = STYLED_ITEM ( 'NONE', ( #44 ), #137 ) ;
#66 = LENGTH_MEASURE_WITH_UNIT ( LENGTH_MEASURE( 0.02539999999999999900 ), #143 );
#67 = CLOSED_SHELL ( 'NONE', ( #183, #12, #124, #64, #46 ) ) ;
#68 = CARTESIAN_POINT ( 'NONE',  ( 0.0000000000000000000, -0.8049999999999998300, 0.0000000000000000000 ) ) ;
#69 = DIRECTION ( 'NONE',  ( 3.491481338843133000E-015, 0.0000000000000000000, -1.000000000000000000 ) ) ;
#70 = PLANE ( 'NONE',  #22 ) ;
#71 = FACE_OUTER_BOUND ( 'NONE', #63, .T. ) ;
#72 = FILL_AREA_STYLE ('',( #174 ) ) ;
#73 = EDGE_LOOP ( 'NONE', ( #149, #61, #100, #7 ) ) ;
#74 = AXIS2_PLACEMENT_3D ( 'NONE', #138, #81, #24 ) ;
#75 = DIRECTION ( 'NONE',  ( -3.491481338843133400E-015, 0.0000000000000000000, 1.000000000000000000 ) ) ;
#76 = CARTESIAN_POINT ( 'NONE',  ( 0.8050000000000000500, -0.8049999999999998300, 0.0000000000000000000 ) ) ;
#77 = ADVANCED_BREP_SHAPE_REPRESENTATION ( '100204', ( #137, #148 ), #94 ) ;
#78 = ORIENTED_EDGE ( 'NONE', *, *, #140, .F. ) ;
#79 = DIRECTION ( 'NONE',  ( 1.000000000000000000, 0.0000000000000000000, 3.491481338843133400E-015 ) ) ;
#80 = DIRECTION ( 'NONE',  ( -1.000000000000000000, 0.0000000000000000000, -3.491481338843133000E-015 ) ) ;
#81 = DIRECTION ( 'NONE',  ( 0.0000000000000000000, 0.0000000000000000000, 1.000000000000000000 ) ) ;
#82 = DIRECTION ( 'NONE',  ( -1.000000000000000000, 0.0000000000000000000, 0.0000000000000000000 ) ) ;
#83 =( GEOMETRIC_REPRESENTATION_CONTEXT ( 3 ) GLOBAL_UNCERTAINTY_ASSIGNED_CONTEXT ( ( #147 ) ) GLOBAL_UNIT_ASSIGNED_CONTEXT ( ( #58, #84, #2 ) ) REPRESENTATION_CONTEXT ( 'NONE', 'WORKASPACE' ) );
#84 =( NAMED_UNIT ( * ) PLANE_ANGLE_UNIT ( ) SI_UNIT ( $, .RADIAN. ) );
#85 = EDGE_CURVE ( 'NONE', #135, #158, #21, .T. ) ;
#86 = ORIENTED_EDGE ( 'NONE', *, *, #119, .F. ) ;
#87 = APPLICATION_CONTEXT ( 'automotive_design' ) ;
#88 = APPLICATION_CONTEXT ( 'automotive_design' ) ;
#89 = DIRECTION ( 'NONE',  ( 1.000000000000000000, 0.0000000000000000000, 3.491481338843133400E-015 ) ) ;
#90 = CIRCLE ( 'NONE', #19, 0.7500000000000002200 ) ;
#91 = EDGE_CURVE ( 'NONE', #161, #32, #165, .T. ) ;
#92 = DIRECTION ( 'NONE',  ( 3.491481338843133000E-015, 0.0000000000000000000, -1.000000000000000000 ) ) ;
#93 = SURFACE_SIDE_STYLE ('',( #95 ) ) ;
#94 =( GEOMETRIC_REPRESENTATION_CONTEXT ( 3 ) GLOBAL_UNCERTAINTY_ASSIGNED_CONTEXT ( ( #166 ) ) GLOBAL_UNIT_ASSIGNED_CONTEXT ( ( #131, #28, #120 ) ) REPRESENTATION_CONTEXT ( 'NONE', 'WORKASPACE' ) );
#95 = SURFACE_STYLE_FILL_AREA ( #123 ) ;
#96 = CARTESIAN_POINT ( 'NONE',  ( 2.455257364474503600E-031, -0.05499999999999968800, -7.032136580996386100E-017 ) ) ;
#97 = CARTESIAN_POINT ( 'NONE',  ( -1.721022156973526300E-031, -0.8050000000000000500, 4.929203366568098100E-017 ) ) ;
#98 = CARTESIAN_POINT ( 'NONE',  ( -2.618611004132350000E-015, -0.8049999999999998300, 0.7500000000000001100 ) ) ;
#99 = CARTESIAN_POINT ( 'NONE',  ( 4.929203366568098100E-017, -0.8050000000000000500, 0.0000000000000000000 ) ) ;
#100 = ORIENTED_EDGE ( 'NONE', *, *, #60, .T. ) ;
#101 = DIRECTION ( 'NONE',  ( -0.0000000000000000000, 1.000000000000000000, 0.0000000000000000000 ) ) ;
#102 = CIRCLE ( 'NONE', #9, 0.8050000000000000500 ) ;
#103 = DIRECTION ( 'NONE',  ( 1.000000000000000000, 0.0000000000000000000, 0.0000000000000000000 ) ) ;
#104 = APPLICATION_PROTOCOL_DEFINITION ( 'draft international standard', 'automotive_design', 1998, #88 ) ;
#105 = AXIS2_PLACEMENT_3D ( 'NONE', #99, #3, #171 ) ;
#106 = EDGE_LOOP ( 'NONE', ( #181, #55, #23 ) ) ;
#107 = DIRECTION ( 'NONE',  ( -0.0000000000000000000, 1.000000000000000000, -0.0000000000000000000 ) ) ;
#108 = AXIS2_PLACEMENT_3D ( 'NONE', #50, #159, #35 ) ;
#109 = EDGE_CURVE ( 'NONE', #45, #135, #56, .T. ) ;
#110 = ORIENTED_EDGE ( 'NONE', *, *, #49, .T. ) ;
#111 = ORIENTED_EDGE ( 'NONE', *, *, #151, .F. ) ;
#112 = LINE ( 'NONE', #52, #125 ) ;
#113 = CARTESIAN_POINT ( 'NONE',  ( 0.7500000000000001100, -0.8049999999999998300, 0.0000000000000000000 ) ) ;
#114 = AXIS2_PLACEMENT_3D ( 'NONE', #98, #101, #26 ) ;
#115 = DIRECTION ( 'NONE',  ( 1.000000000000000000, 0.0000000000000000000, 3.491481338843133000E-015 ) ) ;
#116 = FACE_OUTER_BOUND ( 'NONE', #106, .T. ) ;
#117 = DIRECTION ( 'NONE',  ( -0.0000000000000000000, -0.0000000000000000000, -1.000000000000000000 ) ) ;
#118 = AXIS2_PLACEMENT_3D ( 'NONE', #121, #89, #75 ) ;
#119 = EDGE_CURVE ( 'NONE', #45, #161, #172, .T. ) ;
#120 =( NAMED_UNIT ( * ) SI_UNIT ( $, .STERADIAN. ) SOLID_ANGLE_UNIT ( ) );
#121 = CARTESIAN_POINT ( 'NONE',  ( -1.721022156973526300E-031, -0.8050000000000000500, 4.929203366568098100E-017 ) ) ;
#122 = PRODUCT ( '100204', '100204', '', ( #5 ) ) ;
#123 = FILL_AREA_STYLE ('',( #25 ) ) ;
#124 = ADVANCED_FACE ( 'NONE', ( #1 ), #133, .F. ) ;
#125 = VECTOR ( 'NONE', #146, 39.37007874015748100 ) ;
#126 = CIRCLE ( 'NONE', #74, 0.8050000000000000500 ) ;
#127 = PLANE ( 'NONE',  #105 ) ;
#128 = PRESENTATION_STYLE_ASSIGNMENT (( #57 ) ) ;
#129 = FACE_OUTER_BOUND ( 'NONE', #73, .T. ) ;
#130 =( NAMED_UNIT ( * ) PLANE_ANGLE_UNIT ( ) SI_UNIT ( $, .RADIAN. ) );
#131 =( CONVERSION_BASED_UNIT ( 'INCH', #132 ) LENGTH_UNIT ( ) NAMED_UNIT ( #33 ) );
#132 = LENGTH_MEASURE_WITH_UNIT ( LENGTH_MEASURE( 0.02539999999999999900 ), #42 );
#133 = SPHERICAL_SURFACE ( 'NONE', #184, 0.7500000000000002200 ) ;
#134 = MECHANICAL_DESIGN_GEOMETRIC_PRESENTATION_REPRESENTATION (  '', ( #65 ), #83 ) ;
#135 = VERTEX_POINT ( 'NONE', #36 ) ;
#136 = DIRECTION ( 'NONE',  ( 0.0000000000000000000, 0.0000000000000000000, 1.000000000000000000 ) ) ;
#137 = MANIFOLD_SOLID_BREP ( 'Revolve1', #67 ) ;
#138 = CARTESIAN_POINT ( 'NONE',  ( 4.929203366568098100E-017, -0.8050000000000000500, 0.0000000000000000000 ) ) ;
#139 = EDGE_LOOP ( 'NONE', ( #110, #177, #43 ) ) ;
#140 = EDGE_CURVE ( 'NONE', #32, #41, #112, .T. ) ;
#141 = CARTESIAN_POINT ( 'NONE',  ( -2.618611004132350000E-015, -0.8049999999999998300, 0.7500000000000001100 ) ) ;
#142 = STYLED_ITEM ( 'NONE', ( #128 ), #77 ) ;
#143 =( LENGTH_UNIT ( ) NAMED_UNIT ( * ) SI_UNIT ( $, .METRE. ) );
#144 = ORIENTED_EDGE ( 'NONE', *, *, #85, .T. ) ;
#145 = PRODUCT_DEFINITION_SHAPE ( 'NONE', 'NONE',  #160 ) ;
#146 = DIRECTION ( 'NONE',  ( 4.464104299044577800E-030, -1.000000000000000000, -1.278570287453895700E-015 ) ) ;
#147 = UNCERTAINTY_MEASURE_WITH_UNIT (LENGTH_MEASURE( 1.000000000000000100E-005 ), #58, 'distance_accuracy_value', 'NONE');
#148 = AXIS2_PLACEMENT_3D ( 'NONE', #176, #18, #103 ) ;
#149 = ORIENTED_EDGE ( 'NONE', *, *, #91, .T. ) ;
#150 = DIRECTION ( 'NONE',  ( -3.491481338843133000E-015, 0.0000000000000000000, 1.000000000000000000 ) ) ;
#151 = EDGE_CURVE ( 'NONE', #161, #158, #102, .T. ) ;
#152 = SHAPE_DEFINITION_REPRESENTATION ( #145, #77 ) ;
#153 = DIMENSIONAL_EXPONENTS ( 1.000000000000000000, 0.0000000000000000000, 0.0000000000000000000, 0.0000000000000000000, 0.0000000000000000000, 0.0000000000000000000, 0.0000000000000000000 ) ;
#154 =( LENGTH_UNIT ( ) NAMED_UNIT ( * ) SI_UNIT ( $, .METRE. ) );
#155 = AXIS2_PLACEMENT_3D ( 'NONE', #97, #79, #15 ) ;
#156 = COLOUR_RGB ( '',0.5294117647058823600, 0.5490196078431373000, 0.5490196078431373000 ) ;
#157 = CARTESIAN_POINT ( 'NONE',  ( -1.721022156973526300E-031, -0.8050000000000000500, 4.929203366568098100E-017 ) ) ;
#158 = VERTEX_POINT ( 'NONE', #76 ) ;
#159 = DIRECTION ( 'NONE',  ( -1.000000000000000000, 0.0000000000000000000, -3.491481338843133400E-015 ) ) ;
#160 = PRODUCT_DEFINITION ( 'UNKNOWN', '', #168, #62 ) ;
#161 = VERTEX_POINT ( 'NONE', #30 ) ;
#162 = SURFACE_SIDE_STYLE ('',( #10 ) ) ;
#163 = PRESENTATION_LAYER_ASSIGNMENT (  '', '', ( #142 ) ) ;
#164 = PRESENTATION_LAYER_ASSIGNMENT (  '', '', ( #65 ) ) ;
#165 = CIRCLE ( 'NONE', #108, 0.8050000000000000500 ) ;
#166 = UNCERTAINTY_MEASURE_WITH_UNIT (LENGTH_MEASURE( 1.000000000000000100E-005 ), #131, 'distance_accuracy_value', 'NONE');
#167 = SURFACE_STYLE_USAGE ( .BOTH. , #93 ) ;
#168 = PRODUCT_DEFINITION_FORMATION_WITH_SPECIFIED_SOURCE ( 'ANY', '', #122, .NOT_KNOWN. ) ;
#169 = VECTOR ( 'NONE', #170, 39.37007874015748100 ) ;
#170 = DIRECTION ( 'NONE',  ( 1.000000000000000000, 0.0000000000000000000, 0.0000000000000000000 ) ) ;
#171 = DIRECTION ( 'NONE',  ( -1.000000000000000000, 0.0000000000000000000, 0.0000000000000000000 ) ) ;
#172 = LINE ( 'NONE', #141, #39 ) ;
#173 = APPLICATION_PROTOCOL_DEFINITION ( 'draft international standard', 'automotive_design', 1998, #87 ) ;
#174 = FILL_AREA_STYLE_COLOUR ( '', #59 ) ;
#175 = UNCERTAINTY_MEASURE_WITH_UNIT (LENGTH_MEASURE( 1.000000000000000100E-005 ), #40, 'distance_accuracy_value', 'NONE');
#176 = CARTESIAN_POINT ( 'NONE',  ( 0.0000000000000000000, 0.0000000000000000000, 0.0000000000000000000 ) ) ;
#177 = ORIENTED_EDGE ( 'NONE', *, *, #109, .F. ) ;
#178 = LENGTH_MEASURE_WITH_UNIT ( LENGTH_MEASURE( 0.02539999999999999900 ), #154 );
#179 = MECHANICAL_DESIGN_GEOMETRIC_PRESENTATION_REPRESENTATION (  '', ( #142 ), #38 ) ;
#180 = PRODUCT_RELATED_PRODUCT_CATEGORY ( 'part', '', ( #122 ) ) ;
#181 = ORIENTED_EDGE ( 'NONE', *, *, #151, .T. ) ;
#182 = DIMENSIONAL_EXPONENTS ( 1.000000000000000000, 0.0000000000000000000, 0.0000000000000000000, 0.0000000000000000000, 0.0000000000000000000, 0.0000000000000000000, 0.0000000000000000000 ) ;
#183 = ADVANCED_FACE ( 'NONE', ( #116 ), #6, .T. ) ;
#184 = AXIS2_PLACEMENT_3D ( 'NONE', #157, #80, #69 ) ;
ENDSEC;
END-ISO-10303-21;
