ISO-10303-21;
HEADER;
FILE_DESCRIPTION (( 'STEP AP203' ),
    '1' );
FILE_NAME ('1_2in CORNER FILLER ,125.STEP',
    '2016-12-23T01:24:14',
    ( 'temp' ),
    ( '' ),
    'SwSTEP 2.0',
    'SolidWorks 2016',
    '' );
FILE_SCHEMA (( 'CONFIG_CONTROL_DESIGN' ));
ENDSEC;

DATA;
#1 = ORIENTED_EDGE ( 'NONE', *, *, #11, .F. ) ;
#2 = LINE ( 'NONE', #174, #205 ) ;
#3 = ORGANIZATION ( 'UNSPECIFIED', 'UNSPECIFIED', '' ) ;
#4 = ORIENTED_EDGE ( 'NONE', *, *, #37, .F. ) ;
#5 = CALENDAR_DATE ( 2016, 22, 12 ) ;
#6 = FACE_OUTER_BOUND ( 'NONE', #49, .T. ) ;
#7 = CARTESIAN_POINT ( 'NONE',  ( 0.0000000000000000000, 0.0000000000000000000, 0.0000000000000000000 ) ) ;
#8 = PERSON_AND_ORGANIZATION ( #102, #3 ) ;
#9 = DIRECTION ( 'NONE',  ( -3.491481338843133700E-015, -3.061616997868392500E-016, -1.000000000000000000 ) ) ;
#10 = APPLICATION_PROTOCOL_DEFINITION ( 'international standard', 'config_control_design', 1994, #85 ) ;
#11 = EDGE_CURVE ( 'NONE', #76, #27, #48, .T. ) ;
#12 = ADVANCED_BREP_SHAPE_REPRESENTATION ( '1_2in CORNER FILLER ,125', ( #202, #75 ), #91 ) ;
#13 = DATE_AND_TIME ( #192, #168 ) ;
#14 = EDGE_LOOP ( 'NONE', ( #160, #1, #59, #167 ) ) ;
#15 = COORDINATED_UNIVERSAL_TIME_OFFSET ( 8, 0, .BEHIND. ) ;
#16 =( NAMED_UNIT ( * ) SI_UNIT ( $, .STERADIAN. ) SOLID_ANGLE_UNIT ( ) );
#17 = AXIS2_PLACEMENT_3D ( 'NONE', #142, #24, #186 ) ;
#18 = DIRECTION ( 'NONE',  ( 1.000000000000000000, 3.061616997868381700E-016, 0.0000000000000000000 ) ) ;
#19 = CARTESIAN_POINT ( 'NONE',  ( 0.0000000000000000000, 0.0000000000000000000, 0.0000000000000000000 ) ) ;
#20 = CARTESIAN_POINT ( 'NONE',  ( 0.0000000000000000000, 0.0000000000000000000, 0.0000000000000000000 ) ) ;
#21 = APPLICATION_CONTEXT ( 'configuration controlled 3d designs of mechanical parts and assemblies' ) ;
#22 = DIRECTION ( 'NONE',  ( -0.0000000000000000000, -0.0000000000000000000, -1.000000000000000000 ) ) ;
#23 = ORIENTED_EDGE ( 'NONE', *, *, #148, .T. ) ;
#24 = DIRECTION ( 'NONE',  ( 3.061616997868381700E-016, -1.000000000000000000, -0.0000000000000000000 ) ) ;
#25 = AXIS2_PLACEMENT_3D ( 'NONE', #46, #123, #189 ) ;
#26 = CARTESIAN_POINT ( 'NONE',  ( -1.806354028742340600E-016, 0.5899999999999989700, 4.525015036245541100E-017 ) ) ;
#27 = VERTEX_POINT ( 'NONE', #181 ) ;
#28 = APPROVAL_ROLE ( '' ) ;
#29 = DIRECTION ( 'NONE',  ( -3.491481338843133400E-015, -1.068957861474239200E-030, -1.000000000000000000 ) ) ;
#30 = APPROVAL_PERSON_ORGANIZATION ( #8, #125, #129 ) ;
#31 = CC_DESIGN_PERSON_AND_ORGANIZATION_ASSIGNMENT ( #153, #195, ( #120 ) ) ;
#32 = APPROVAL_DATE_TIME ( #13, #34 ) ;
#33 = AXIS2_PLACEMENT_3D ( 'NONE', #117, #207, #58 ) ;
#34 = APPROVAL ( #100, 'UNSPECIFIED' ) ;
#35 = EDGE_LOOP ( 'NONE', ( #23, #54, #71, #60 ) ) ;
#36 = CALENDAR_DATE ( 2016, 22, 12 ) ;
#37 = EDGE_CURVE ( 'NONE', #27, #77, #173, .T. ) ;
#38 = VECTOR ( 'NONE', #119, 39.37007874015748100 ) ;
#39 = CC_DESIGN_DATE_AND_TIME_ASSIGNMENT ( #61, #151, ( #185 ) ) ;
#40 = DIRECTION ( 'NONE',  ( 1.000000000000000000, 0.0000000000000000000, 0.0000000000000000000 ) ) ;
#41 = CARTESIAN_POINT ( 'NONE',  ( 0.0000000000000000000, 0.0000000000000000000, 0.0000000000000000000 ) ) ;
#42 = AXIS2_PLACEMENT_3D ( 'NONE', #93, #206, #140 ) ;
#43 = AXIS2_PLACEMENT_3D ( 'NONE', #98, #81, #18 ) ;
#44 = CLOSED_SHELL ( 'NONE', ( #70, #51, #53, #110, #183 ) ) ;
#45 = COORDINATED_UNIVERSAL_TIME_OFFSET ( 8, 0, .BEHIND. ) ;
#46 = CARTESIAN_POINT ( 'NONE',  ( 0.0000000000000000000, 0.0000000000000000000, 0.0000000000000000000 ) ) ;
#47 = DIRECTION ( 'NONE',  ( 3.061616997868364400E-016, -1.000000000000000000, -5.027794484717305600E-016 ) ) ;
#48 = LINE ( 'NONE', #69, #83 ) ;
#49 = EDGE_LOOP ( 'NONE', ( #170, #147, #146, #95 ) ) ;
#50 = LENGTH_MEASURE_WITH_UNIT ( LENGTH_MEASURE( 0.02539999999999999900 ), #154 );
#51 = ADVANCED_FACE ( 'NONE', ( #118 ), #106, .T. ) ;
#52 = CC_DESIGN_PERSON_AND_ORGANIZATION_ASSIGNMENT ( #164, #187, ( #137 ) ) ;
#53 = ADVANCED_FACE ( 'NONE', ( #116 ), #211, .T. ) ;
#54 = ORIENTED_EDGE ( 'NONE', *, *, #11, .T. ) ;
#55 = APPLICATION_PROTOCOL_DEFINITION ( 'international standard', 'config_control_design', 1994, #21 ) ;
#56 = APPROVAL ( #203, 'UNSPECIFIED' ) ;
#57 = FACE_OUTER_BOUND ( 'NONE', #35, .T. ) ;
#58 = DIRECTION ( 'NONE',  ( 1.000000000000000000, 3.061616997868381700E-016, 0.0000000000000000000 ) ) ;
#59 = ORIENTED_EDGE ( 'NONE', *, *, #197, .F. ) ;
#60 = ORIENTED_EDGE ( 'NONE', *, *, #156, .T. ) ;
#61 = DATE_AND_TIME ( #36, #79 ) ;
#62 = EDGE_LOOP ( 'NONE', ( #132, #64, #66 ) ) ;
#63 = DIRECTION ( 'NONE',  ( 1.000000000000000000, 6.123233995736756200E-017, 0.0000000000000000000 ) ) ;
#64 = ORIENTED_EDGE ( 'NONE', *, *, #148, .F. ) ;
#65 = AXIS2_PLACEMENT_3D ( 'NONE', #163, #136, #9 ) ;
#66 = ORIENTED_EDGE ( 'NONE', *, *, #135, .T. ) ;
#67 = DIRECTION ( 'NONE',  ( 0.0000000000000000000, 0.0000000000000000000, 1.000000000000000000 ) ) ;
#68 = CC_DESIGN_APPROVAL ( #56, ( #171 ) ) ;
#69 = CARTESIAN_POINT ( 'NONE',  ( 0.4999999999999996100, 3.061616997868379900E-017, 0.0000000000000000000 ) ) ;
#70 = ADVANCED_FACE ( 'NONE', ( #149 ), #104, .F. ) ;
#71 = ORIENTED_EDGE ( 'NONE', *, *, #37, .T. ) ;
#72 = PLANE ( 'NONE',  #130 ) ;
#73 = MECHANICAL_CONTEXT ( 'NONE', #21, 'mechanical' ) ;
#74 = APPROVAL_DATE_TIME ( #134, #125 ) ;
#75 = AXIS2_PLACEMENT_3D ( 'NONE', #19, #190, #40 ) ;
#76 = VERTEX_POINT ( 'NONE', #86 ) ;
#77 = VERTEX_POINT ( 'NONE', #26 ) ;
#78 = EDGE_LOOP ( 'NONE', ( #4, #82, #138 ) ) ;
#79 = LOCAL_TIME ( 17, 24, 14.00000000000000000, #194 ) ;
#80 = COORDINATED_UNIVERSAL_TIME_OFFSET ( 8, 0, .BEHIND. ) ;
#81 = DIRECTION ( 'NONE',  ( 3.061616997868381700E-016, -1.000000000000000000, -0.0000000000000000000 ) ) ;
#82 = ORIENTED_EDGE ( 'NONE', *, *, #201, .F. ) ;
#83 = VECTOR ( 'NONE', #63, 39.37007874015748100 ) ;
#84 = PERSON_AND_ORGANIZATION ( #102, #3 ) ;
#85 = APPLICATION_CONTEXT ( 'configuration controlled 3d designs of mechanical parts and assemblies' ) ;
#86 = CARTESIAN_POINT ( 'NONE',  ( 0.4999999999999996100, 3.061616997868379900E-017, 0.0000000000000000000 ) ) ;
#87 = VERTEX_POINT ( 'NONE', #176 ) ;
#88 = APPROVAL_ROLE ( '' ) ;
#89 = PERSON_AND_ORGANIZATION ( #102, #3 ) ;
#90 = PERSON_AND_ORGANIZATION_ROLE ( 'creator' ) ;
#91 =( GEOMETRIC_REPRESENTATION_CONTEXT ( 3 ) GLOBAL_UNCERTAINTY_ASSIGNED_CONTEXT ( ( #179 ) ) GLOBAL_UNIT_ASSIGNED_CONTEXT ( ( #212, #131, #16 ) ) REPRESENTATION_CONTEXT ( 'NONE', 'WORKASPACE' ) );
#92 = APPROVAL_PERSON_ORGANIZATION ( #84, #56, #88 ) ;
#93 = CARTESIAN_POINT ( 'NONE',  ( 0.0000000000000000000, 0.0000000000000000000, 0.0000000000000000000 ) ) ;
#94 = CC_DESIGN_DATE_AND_TIME_ASSIGNMENT ( #105, #122, ( #137 ) ) ;
#95 = ORIENTED_EDGE ( 'NONE', *, *, #141, .F. ) ;
#96 = PERSON_AND_ORGANIZATION_ROLE ( 'design_supplier' ) ;
#97 = PLANE ( 'NONE',  #25 ) ;
#98 = CARTESIAN_POINT ( 'NONE',  ( 4.424291358852469000E-032, -1.445083222993873600E-016, 0.0000000000000000000 ) ) ;
#99 = CC_DESIGN_SECURITY_CLASSIFICATION ( #185, ( #171 ) ) ;
#100 = APPROVAL_STATUS ( 'not_yet_approved' ) ;
#101 = AXIS2_PLACEMENT_3D ( 'NONE', #41, #111, #213 ) ;
#102 = PERSON ( 'UNSPECIFIED', 'UNSPECIFIED', 'UNSPECIFIED', ('UNSPECIFIED'), ('UNSPECIFIED'), ('UNSPECIFIED') ) ;
#103 = CC_DESIGN_PERSON_AND_ORGANIZATION_ASSIGNMENT ( #124, #96, ( #171 ) ) ;
#104 = SPHERICAL_SURFACE ( 'NONE', #109, 0.4999999999999996100 ) ;
#105 = DATE_AND_TIME ( #178, #143 ) ;
#106 = PLANE ( 'NONE',  #17 ) ;
#107 = CIRCLE ( 'NONE', #65, 0.5899999999999989700 ) ;
#108 = SECURITY_CLASSIFICATION_LEVEL ( 'unclassified' ) ;
#109 = AXIS2_PLACEMENT_3D ( 'NONE', #7, #121, #29 ) ;
#110 = ADVANCED_FACE ( 'NONE', ( #6 ), #97, .F. ) ;
#111 = DIRECTION ( 'NONE',  ( 0.0000000000000000000, 0.0000000000000000000, 1.000000000000000000 ) ) ;
#112 = CC_DESIGN_PERSON_AND_ORGANIZATION_ASSIGNMENT ( #89, #90, ( #171 ) ) ;
#113 = VERTEX_POINT ( 'NONE', #166 ) ;
#114 = DIRECTION ( 'NONE',  ( -3.491481338843133400E-015, -3.061616997868392000E-016, -1.000000000000000000 ) ) ;
#115 = CARTESIAN_POINT ( 'NONE',  ( -1.745740669421565300E-015, -1.224646799147356900E-016, -0.4999999999999996100 ) ) ;
#116 = FACE_OUTER_BOUND ( 'NONE', #78, .T. ) ;
#117 = CARTESIAN_POINT ( 'NONE',  ( 3.749399456654637500E-032, -1.224646799147351500E-016, 0.0000000000000000000 ) ) ;
#118 = FACE_OUTER_BOUND ( 'NONE', #14, .T. ) ;
#119 = DIRECTION ( 'NONE',  ( -3.491481338843133000E-015, -2.449293598294716800E-016, -1.000000000000000000 ) ) ;
#120 = PRODUCT ( '1_2in CORNER FILLER ,125', '1_2in CORNER FILLER ,125', '', ( #73 ) ) ;
#121 = DIRECTION ( 'NONE',  ( 1.000000000000000000, 3.061616997868381700E-016, -3.491481338843133400E-015 ) ) ;
#122 = DATE_TIME_ROLE ( 'creation_date' ) ;
#123 = DIRECTION ( 'NONE',  ( 1.000000000000000000, 3.061616997868381700E-016, -3.491481338843133000E-015 ) ) ;
#124 = PERSON_AND_ORGANIZATION ( #102, #3 ) ;
#125 = APPROVAL ( #144, 'UNSPECIFIED' ) ;
#126 = PERSON_AND_ORGANIZATION ( #102, #3 ) ;
#127 = CC_DESIGN_APPROVAL ( #125, ( #185 ) ) ;
#128 = COORDINATED_UNIVERSAL_TIME_OFFSET ( 8, 0, .BEHIND. ) ;
#129 = APPROVAL_ROLE ( '' ) ;
#130 = AXIS2_PLACEMENT_3D ( 'NONE', #20, #67, #210 ) ;
#131 =( NAMED_UNIT ( * ) PLANE_ANGLE_UNIT ( ) SI_UNIT ( $, .RADIAN. ) );
#132 = ORIENTED_EDGE ( 'NONE', *, *, #197, .T. ) ;
#133 = LOCAL_TIME ( 17, 24, 14.00000000000000000, #80 ) ;
#134 = DATE_AND_TIME ( #5, #150 ) ;
#135 = EDGE_CURVE ( 'NONE', #172, #113, #196, .T. ) ;
#136 = DIRECTION ( 'NONE',  ( 1.000000000000000000, 3.061616997868381700E-016, -3.491481338843133400E-015 ) ) ;
#137 = PRODUCT_DEFINITION ( 'UNKNOWN', '', #171, #145 ) ;
#138 = ORIENTED_EDGE ( 'NONE', *, *, #209, .T. ) ;
#139 = PERSON_AND_ORGANIZATION_ROLE ( 'classification_officer' ) ;
#140 = DIRECTION ( 'NONE',  ( -3.491481338843133400E-015, -1.068957861474239200E-030, -1.000000000000000000 ) ) ;
#141 = EDGE_CURVE ( 'NONE', #113, #87, #204, .T. ) ;
#142 = CARTESIAN_POINT ( 'NONE',  ( -1.745740669421565300E-015, -1.334865011070618000E-016, -0.4999999999999996100 ) ) ;
#143 = LOCAL_TIME ( 17, 24, 14.00000000000000000, #45 ) ;
#144 = APPROVAL_STATUS ( 'not_yet_approved' ) ;
#145 = DESIGN_CONTEXT ( 'detailed design', #85, 'design' ) ;
#146 = ORIENTED_EDGE ( 'NONE', *, *, #209, .F. ) ;
#147 = ORIENTED_EDGE ( 'NONE', *, *, #156, .F. ) ;
#148 = EDGE_CURVE ( 'NONE', #172, #76, #161, .T. ) ;
#149 = FACE_OUTER_BOUND ( 'NONE', #62, .T. ) ;
#150 = LOCAL_TIME ( 17, 24, 14.00000000000000000, #15 ) ;
#151 = DATE_TIME_ROLE ( 'classification_date' ) ;
#152 = DATE_AND_TIME ( #200, #133 ) ;
#153 = PERSON_AND_ORGANIZATION ( #102, #3 ) ;
#154 =( LENGTH_UNIT ( ) NAMED_UNIT ( * ) SI_UNIT ( $, .METRE. ) );
#155 = APPROVAL_DATE_TIME ( #152, #56 ) ;
#156 = EDGE_CURVE ( 'NONE', #77, #172, #2, .T. ) ;
#157 = PERSON_AND_ORGANIZATION ( #102, #3 ) ;
#158 = DIRECTION ( 'NONE',  ( 1.000000000000000000, 0.0000000000000000000, 0.0000000000000000000 ) ) ;
#159 = DIRECTION ( 'NONE',  ( -1.000000000000000000, -3.061616997868381700E-016, 3.491481338843133400E-015 ) ) ;
#160 = ORIENTED_EDGE ( 'NONE', *, *, #201, .T. ) ;
#161 = CIRCLE ( 'NONE', #191, 0.4999999999999996100 ) ;
#162 = SHAPE_DEFINITION_REPRESENTATION ( #184, #12 ) ;
#163 = CARTESIAN_POINT ( 'NONE',  ( 0.0000000000000000000, 0.0000000000000000000, 0.0000000000000000000 ) ) ;
#164 = PERSON_AND_ORGANIZATION ( #102, #3 ) ;
#165 = CIRCLE ( 'NONE', #43, 0.5899999999999989700 ) ;
#166 = CARTESIAN_POINT ( 'NONE',  ( -1.745740669421565300E-015, -1.224646799147356900E-016, -0.4999999999999996100 ) ) ;
#167 = ORIENTED_EDGE ( 'NONE', *, *, #141, .T. ) ;
#168 = LOCAL_TIME ( 17, 24, 14.00000000000000000, #128 ) ;
#169 = CARTESIAN_POINT ( 'NONE',  ( 0.0000000000000000000, 0.0000000000000000000, 0.0000000000000000000 ) ) ;
#170 = ORIENTED_EDGE ( 'NONE', *, *, #135, .F. ) ;
#171 = PRODUCT_DEFINITION_FORMATION_WITH_SPECIFIED_SOURCE ( 'ANY', '', #120, .NOT_KNOWN. ) ;
#172 = VERTEX_POINT ( 'NONE', #182 ) ;
#173 = CIRCLE ( 'NONE', #101, 0.5899999999999989700 ) ;
#174 = CARTESIAN_POINT ( 'NONE',  ( -1.806354028742340600E-016, 0.5899999999999989700, 4.525015036245541100E-017 ) ) ;
#175 = AXIS2_PLACEMENT_3D ( 'NONE', #193, #159, #114 ) ;
#176 = CARTESIAN_POINT ( 'NONE',  ( -2.059973989917445200E-015, -1.445083222993880000E-016, -0.5899999999999989700 ) ) ;
#177 = PRODUCT_RELATED_PRODUCT_CATEGORY ( 'detail', '', ( #120 ) ) ;
#178 = CALENDAR_DATE ( 2016, 22, 12 ) ;
#179 = UNCERTAINTY_MEASURE_WITH_UNIT (LENGTH_MEASURE( 1.000000000000000100E-005 ), #212, 'distance_accuracy_value', 'NONE');
#180 = DIMENSIONAL_EXPONENTS ( 1.000000000000000000, 0.0000000000000000000, 0.0000000000000000000, 0.0000000000000000000, 0.0000000000000000000, 0.0000000000000000000, 0.0000000000000000000 ) ;
#181 = CARTESIAN_POINT ( 'NONE',  ( 0.5899999999999989700, 3.612708057484684000E-017, 0.0000000000000000000 ) ) ;
#182 = CARTESIAN_POINT ( 'NONE',  ( -1.530808498934189400E-016, 0.4999999999999996100, -3.032960542342103800E-032 ) ) ;
#183 = ADVANCED_FACE ( 'NONE', ( #57 ), #72, .T. ) ;
#184 = PRODUCT_DEFINITION_SHAPE ( 'NONE', 'NONE',  #137 ) ;
#185 = SECURITY_CLASSIFICATION ( '', '', #108 ) ;
#186 = DIRECTION ( 'NONE',  ( 1.000000000000000000, 3.061616997868381700E-016, 0.0000000000000000000 ) ) ;
#187 = PERSON_AND_ORGANIZATION_ROLE ( 'creator' ) ;
#188 = APPROVAL_PERSON_ORGANIZATION ( #157, #34, #28 ) ;
#189 = DIRECTION ( 'NONE',  ( -3.491481338843133000E-015, -3.061616997868392500E-016, -1.000000000000000000 ) ) ;
#190 = DIRECTION ( 'NONE',  ( 0.0000000000000000000, 0.0000000000000000000, 1.000000000000000000 ) ) ;
#191 = AXIS2_PLACEMENT_3D ( 'NONE', #169, #22, #158 ) ;
#192 = CALENDAR_DATE ( 2016, 22, 12 ) ;
#193 = CARTESIAN_POINT ( 'NONE',  ( 0.0000000000000000000, 0.0000000000000000000, 0.0000000000000000000 ) ) ;
#194 = COORDINATED_UNIVERSAL_TIME_OFFSET ( 8, 0, .BEHIND. ) ;
#195 = PERSON_AND_ORGANIZATION_ROLE ( 'design_owner' ) ;
#196 = CIRCLE ( 'NONE', #175, 0.4999999999999996100 ) ;
#197 = EDGE_CURVE ( 'NONE', #113, #76, #199, .T. ) ;
#198 = CC_DESIGN_APPROVAL ( #34, ( #137 ) ) ;
#199 = CIRCLE ( 'NONE', #33, 0.4999999999999996100 ) ;
#200 = CALENDAR_DATE ( 2016, 22, 12 ) ;
#201 = EDGE_CURVE ( 'NONE', #87, #27, #165, .T. ) ;
#202 = MANIFOLD_SOLID_BREP ( 'Revolve1', #44 ) ;
#203 = APPROVAL_STATUS ( 'not_yet_approved' ) ;
#204 = LINE ( 'NONE', #115, #38 ) ;
#205 = VECTOR ( 'NONE', #47, 39.37007874015748100 ) ;
#206 = DIRECTION ( 'NONE',  ( 1.000000000000000000, 3.061616997868381700E-016, -3.491481338843133400E-015 ) ) ;
#207 = DIRECTION ( 'NONE',  ( 3.061616997868381700E-016, -1.000000000000000000, -0.0000000000000000000 ) ) ;
#208 = CC_DESIGN_PERSON_AND_ORGANIZATION_ASSIGNMENT ( #126, #139, ( #185 ) ) ;
#209 = EDGE_CURVE ( 'NONE', #87, #77, #107, .T. ) ;
#210 = DIRECTION ( 'NONE',  ( 1.000000000000000000, 0.0000000000000000000, -0.0000000000000000000 ) ) ;
#211 = SPHERICAL_SURFACE ( 'NONE', #42, 0.5899999999999989700 ) ;
#212 =( CONVERSION_BASED_UNIT ( 'INCH', #50 ) LENGTH_UNIT ( ) NAMED_UNIT ( #180 ) );
#213 = DIRECTION ( 'NONE',  ( 1.000000000000000000, 0.0000000000000000000, 0.0000000000000000000 ) ) ;
ENDSEC;
END-ISO-10303-21;
