ISO-10303-21;
HEADER;
FILE_DESCRIPTION (( 'STEP AP203' ),
    '1' );
FILE_NAME ('1_2in CORNER FILLER 13 Ga.STEP',
    '2016-12-23T01:07:00',
    ( 'temp' ),
    ( '' ),
    'SwSTEP 2.0',
    'SolidWorks 2016',
    '' );
FILE_SCHEMA (( 'CONFIG_CONTROL_DESIGN' ));
ENDSEC;

DATA;
#1 = DATE_TIME_ROLE ( 'creation_date' ) ;
#2 = DATE_AND_TIME ( #106, #197 ) ;
#3 = ORIENTED_EDGE ( 'NONE', *, *, #92, .T. ) ;
#4 = ORIENTED_EDGE ( 'NONE', *, *, #199, .F. ) ;
#5 = SECURITY_CLASSIFICATION_LEVEL ( 'unclassified' ) ;
#6 = MANIFOLD_SOLID_BREP ( 'Revolve1', #164 ) ;
#7 = CIRCLE ( 'NONE', #149, 0.5899999999999989700 ) ;
#8 = PERSON_AND_ORGANIZATION ( #55, #74 ) ;
#9 = SHAPE_DEFINITION_REPRESENTATION ( #112, #51 ) ;
#10 = CC_DESIGN_DATE_AND_TIME_ASSIGNMENT ( #86, #54, ( #107 ) ) ;
#11 = VERTEX_POINT ( 'NONE', #76 ) ;
#12 = DIRECTION ( 'NONE',  ( -3.491481338843133000E-015, -3.061616997868392500E-016, -1.000000000000000000 ) ) ;
#13 = ORIENTED_EDGE ( 'NONE', *, *, #159, .T. ) ;
#14 = CARTESIAN_POINT ( 'NONE',  ( 0.5899999999999989700, 3.612708057484684000E-017, 0.0000000000000000000 ) ) ;
#15 = AXIS2_PLACEMENT_3D ( 'NONE', #48, #98, #28 ) ;
#16 =( NAMED_UNIT ( * ) SI_UNIT ( $, .STERADIAN. ) SOLID_ANGLE_UNIT ( ) );
#17 = DIRECTION ( 'NONE',  ( 0.0000000000000000000, 0.0000000000000000000, 1.000000000000000000 ) ) ;
#18 = VERTEX_POINT ( 'NONE', #113 ) ;
#19 = EDGE_CURVE ( 'NONE', #179, #18, #136, .T. ) ;
#20 = FACE_OUTER_BOUND ( 'NONE', #211, .T. ) ;
#21 = VECTOR ( 'NONE', #145, 39.37007874015748100 ) ;
#22 = EDGE_LOOP ( 'NONE', ( #59, #24, #184 ) ) ;
#23 = APPROVAL_ROLE ( '' ) ;
#24 = ORIENTED_EDGE ( 'NONE', *, *, #66, .F. ) ;
#25 = CARTESIAN_POINT ( 'NONE',  ( -1.806354028742340600E-016, 0.5899999999999989700, 4.525015036245541100E-017 ) ) ;
#26 = CALENDAR_DATE ( 2016, 22, 12 ) ;
#27 = PLANE ( 'NONE',  #138 ) ;
#28 = DIRECTION ( 'NONE',  ( 1.000000000000000000, 0.0000000000000000000, 0.0000000000000000000 ) ) ;
#29 = AXIS2_PLACEMENT_3D ( 'NONE', #150, #17, #63 ) ;
#30 = CARTESIAN_POINT ( 'NONE',  ( 0.0000000000000000000, 0.0000000000000000000, 0.0000000000000000000 ) ) ;
#31 = DIRECTION ( 'NONE',  ( 1.000000000000000000, 6.123233995736756200E-017, 0.0000000000000000000 ) ) ;
#32 = VECTOR ( 'NONE', #40, 39.37007874015748100 ) ;
#33 = CARTESIAN_POINT ( 'NONE',  ( -1.806354028742340600E-016, 0.5899999999999989700, 4.525015036245541100E-017 ) ) ;
#34 = AXIS2_PLACEMENT_3D ( 'NONE', #207, #146, #97 ) ;
#35 = CC_DESIGN_PERSON_AND_ORGANIZATION_ASSIGNMENT ( #143, #88, ( #171 ) ) ;
#36 = LINE ( 'NONE', #25, #32 ) ;
#37 = PERSON_AND_ORGANIZATION_ROLE ( 'creator' ) ;
#38 = DATE_AND_TIME ( #196, #105 ) ;
#39 = CARTESIAN_POINT ( 'NONE',  ( 0.4999999999999996100, 3.061616997868379900E-017, 0.0000000000000000000 ) ) ;
#40 = DIRECTION ( 'NONE',  ( 3.061616997868364400E-016, -1.000000000000000000, -5.027794484717305600E-016 ) ) ;
#41 = EDGE_LOOP ( 'NONE', ( #158, #206, #160 ) ) ;
#42 = ADVANCED_FACE ( 'NONE', ( #71 ), #124, .F. ) ;
#43 = DESIGN_CONTEXT ( 'detailed design', #180, 'design' ) ;
#44 = DIRECTION ( 'NONE',  ( 0.0000000000000000000, 0.0000000000000000000, 1.000000000000000000 ) ) ;
#45 = CARTESIAN_POINT ( 'NONE',  ( -1.745740669421565300E-015, -1.224646799147356900E-016, -0.4999999999999996100 ) ) ;
#46 = DIRECTION ( 'NONE',  ( 1.000000000000000000, 3.061616997868381700E-016, -3.491481338843133400E-015 ) ) ;
#47 = CC_DESIGN_SECURITY_CLASSIFICATION ( #107, ( #53 ) ) ;
#48 = CARTESIAN_POINT ( 'NONE',  ( 0.0000000000000000000, 0.0000000000000000000, 0.0000000000000000000 ) ) ;
#49 = CALENDAR_DATE ( 2016, 22, 12 ) ;
#50 = CIRCLE ( 'NONE', #114, 0.4999999999999996100 ) ;
#51 = ADVANCED_BREP_SHAPE_REPRESENTATION ( '1_2in CORNER FILLER 13 Ga', ( #6, #29 ), #213 ) ;
#52 = AXIS2_PLACEMENT_3D ( 'NONE', #189, #44, #81 ) ;
#53 = PRODUCT_DEFINITION_FORMATION_WITH_SPECIFIED_SOURCE ( 'ANY', '', #139, .NOT_KNOWN. ) ;
#54 = DATE_TIME_ROLE ( 'classification_date' ) ;
#55 = PERSON ( 'UNSPECIFIED', 'UNSPECIFIED', 'UNSPECIFIED', ('UNSPECIFIED'), ('UNSPECIFIED'), ('UNSPECIFIED') ) ;
#56 = CC_DESIGN_APPROVAL ( #79, ( #107 ) ) ;
#57 = CC_DESIGN_APPROVAL ( #163, ( #171 ) ) ;
#58 = APPROVAL_PERSON_ORGANIZATION ( #87, #163, #23 ) ;
#59 = ORIENTED_EDGE ( 'NONE', *, *, #159, .F. ) ;
#60 = ADVANCED_FACE ( 'NONE', ( #183 ), #83, .T. ) ;
#61 =( CONVERSION_BASED_UNIT ( 'INCH', #108 ) LENGTH_UNIT ( ) NAMED_UNIT ( #100 ) );
#62 = DIRECTION ( 'NONE',  ( 3.061616997868381700E-016, -1.000000000000000000, -0.0000000000000000000 ) ) ;
#63 = DIRECTION ( 'NONE',  ( 1.000000000000000000, 0.0000000000000000000, 0.0000000000000000000 ) ) ;
#64 = ORIENTED_EDGE ( 'NONE', *, *, #89, .F. ) ;
#65 = ORIENTED_EDGE ( 'NONE', *, *, #175, .F. ) ;
#66 = EDGE_CURVE ( 'NONE', #18, #178, #69, .T. ) ;
#67 = AXIS2_PLACEMENT_3D ( 'NONE', #126, #208, #12 ) ;
#68 = APPROVAL_PERSON_ORGANIZATION ( #142, #79, #203 ) ;
#69 = CIRCLE ( 'NONE', #101, 0.5899999999999989700 ) ;
#70 = PERSON_AND_ORGANIZATION_ROLE ( 'classification_officer' ) ;
#71 = FACE_OUTER_BOUND ( 'NONE', #41, .T. ) ;
#72 = PERSON_AND_ORGANIZATION ( #55, #74 ) ;
#73 = DIRECTION ( 'NONE',  ( -1.000000000000000000, -3.061616997868381700E-016, 3.491481338843133400E-015 ) ) ;
#74 = ORGANIZATION ( 'UNSPECIFIED', 'UNSPECIFIED', '' ) ;
#75 = PLANE ( 'NONE',  #67 ) ;
#76 = CARTESIAN_POINT ( 'NONE',  ( 0.4999999999999996100, 3.061616997868379900E-017, 0.0000000000000000000 ) ) ;
#77 = EDGE_CURVE ( 'NONE', #148, #179, #140, .T. ) ;
#78 = DIRECTION ( 'NONE',  ( 1.000000000000000000, 3.061616997868381700E-016, 0.0000000000000000000 ) ) ;
#79 = APPROVAL ( #95, 'UNSPECIFIED' ) ;
#80 = EDGE_LOOP ( 'NONE', ( #110, #65, #4, #185 ) ) ;
#81 = DIRECTION ( 'NONE',  ( 1.000000000000000000, 0.0000000000000000000, -0.0000000000000000000 ) ) ;
#82 = DIRECTION ( 'NONE',  ( 1.000000000000000000, 3.061616997868381700E-016, -3.491481338843133400E-015 ) ) ;
#83 = PLANE ( 'NONE',  #52 ) ;
#84 = COORDINATED_UNIVERSAL_TIME_OFFSET ( 8, 0, .BEHIND. ) ;
#85 = AXIS2_PLACEMENT_3D ( 'NONE', #161, #176, #212 ) ;
#86 = DATE_AND_TIME ( #91, #162 ) ;
#87 = PERSON_AND_ORGANIZATION ( #55, #74 ) ;
#88 = PERSON_AND_ORGANIZATION_ROLE ( 'creator' ) ;
#89 = EDGE_CURVE ( 'NONE', #18, #122, #7, .T. ) ;
#90 = PRODUCT_RELATED_PRODUCT_CATEGORY ( 'detail', '', ( #139 ) ) ;
#91 = CALENDAR_DATE ( 2016, 22, 12 ) ;
#92 = EDGE_CURVE ( 'NONE', #148, #11, #50, .T. ) ;
#93 = PERSON_AND_ORGANIZATION ( #55, #74 ) ;
#94 = CIRCLE ( 'NONE', #15, 0.5899999999999989700 ) ;
#95 = APPROVAL_STATUS ( 'not_yet_approved' ) ;
#96 = DATE_AND_TIME ( #26, #123 ) ;
#97 = DIRECTION ( 'NONE',  ( -3.491481338843133400E-015, -1.068957861474239200E-030, -1.000000000000000000 ) ) ;
#98 = DIRECTION ( 'NONE',  ( 0.0000000000000000000, 0.0000000000000000000, 1.000000000000000000 ) ) ;
#99 = APPLICATION_PROTOCOL_DEFINITION ( 'international standard', 'config_control_design', 1994, #180 ) ;
#100 = DIMENSIONAL_EXPONENTS ( 1.000000000000000000, 0.0000000000000000000, 0.0000000000000000000, 0.0000000000000000000, 0.0000000000000000000, 0.0000000000000000000, 0.0000000000000000000 ) ;
#101 = AXIS2_PLACEMENT_3D ( 'NONE', #204, #62, #181 ) ;
#102 = APPROVAL_STATUS ( 'not_yet_approved' ) ;
#103 = COORDINATED_UNIVERSAL_TIME_OFFSET ( 8, 0, .BEHIND. ) ;
#104 = FACE_OUTER_BOUND ( 'NONE', #22, .T. ) ;
#105 = LOCAL_TIME ( 17, 6, 59.00000000000000000, #84 ) ;
#106 = CALENDAR_DATE ( 2016, 22, 12 ) ;
#107 = SECURITY_CLASSIFICATION ( '', '', #5 ) ;
#108 = LENGTH_MEASURE_WITH_UNIT ( LENGTH_MEASURE( 0.02539999999999999900 ), #210 );
#109 = EDGE_CURVE ( 'NONE', #122, #148, #36, .T. ) ;
#110 = ORIENTED_EDGE ( 'NONE', *, *, #66, .T. ) ;
#111 = CARTESIAN_POINT ( 'NONE',  ( 0.0000000000000000000, 0.0000000000000000000, 0.0000000000000000000 ) ) ;
#112 = PRODUCT_DEFINITION_SHAPE ( 'NONE', 'NONE',  #171 ) ;
#113 = CARTESIAN_POINT ( 'NONE',  ( -2.059973989917445200E-015, -1.445083222993880000E-016, -0.5899999999999989700 ) ) ;
#114 = AXIS2_PLACEMENT_3D ( 'NONE', #144, #174, #177 ) ;
#115 =( NAMED_UNIT ( * ) PLANE_ANGLE_UNIT ( ) SI_UNIT ( $, .RADIAN. ) );
#116 = CC_DESIGN_PERSON_AND_ORGANIZATION_ASSIGNMENT ( #72, #70, ( #107 ) ) ;
#117 = ORIENTED_EDGE ( 'NONE', *, *, #109, .F. ) ;
#118 = CARTESIAN_POINT ( 'NONE',  ( -1.745740669421565300E-015, -1.334865011070618000E-016, -0.4999999999999996100 ) ) ;
#119 = ORIENTED_EDGE ( 'NONE', *, *, #109, .T. ) ;
#120 = DATE_AND_TIME ( #49, #186 ) ;
#121 = PERSON_AND_ORGANIZATION ( #55, #74 ) ;
#122 = VERTEX_POINT ( 'NONE', #33 ) ;
#123 = LOCAL_TIME ( 17, 6, 59.00000000000000000, #205 ) ;
#124 = SPHERICAL_SURFACE ( 'NONE', #34, 0.4999999999999996100 ) ;
#125 = CIRCLE ( 'NONE', #85, 0.4999999999999996100 ) ;
#126 = CARTESIAN_POINT ( 'NONE',  ( 0.0000000000000000000, 0.0000000000000000000, 0.0000000000000000000 ) ) ;
#127 = CC_DESIGN_PERSON_AND_ORGANIZATION_ASSIGNMENT ( #121, #37, ( #53 ) ) ;
#128 = APPLICATION_CONTEXT ( 'configuration controlled 3d designs of mechanical parts and assemblies' ) ;
#129 = DIRECTION ( 'NONE',  ( -3.491481338843133400E-015, -1.068957861474239200E-030, -1.000000000000000000 ) ) ;
#130 = ADVANCED_FACE ( 'NONE', ( #167 ), #27, .T. ) ;
#131 = APPROVAL_ROLE ( '' ) ;
#132 = CC_DESIGN_PERSON_AND_ORGANIZATION_ASSIGNMENT ( #188, #165, ( #139 ) ) ;
#133 = APPROVAL_DATE_TIME ( #38, #166 ) ;
#134 = SPHERICAL_SURFACE ( 'NONE', #195, 0.5899999999999989700 ) ;
#135 = CARTESIAN_POINT ( 'NONE',  ( -1.745740669421565300E-015, -1.224646799147356900E-016, -0.4999999999999996100 ) ) ;
#136 = LINE ( 'NONE', #135, #21 ) ;
#137 = APPROVAL_STATUS ( 'not_yet_approved' ) ;
#138 = AXIS2_PLACEMENT_3D ( 'NONE', #118, #193, #78 ) ;
#139 = PRODUCT ( '1_2in CORNER FILLER 13 Ga', '1_2in CORNER FILLER 13 Ga', '', ( #182 ) ) ;
#140 = CIRCLE ( 'NONE', #191, 0.4999999999999996100 ) ;
#141 = ORIENTED_EDGE ( 'NONE', *, *, #77, .F. ) ;
#142 = PERSON_AND_ORGANIZATION ( #55, #74 ) ;
#143 = PERSON_AND_ORGANIZATION ( #55, #74 ) ;
#144 = CARTESIAN_POINT ( 'NONE',  ( 0.0000000000000000000, 0.0000000000000000000, 0.0000000000000000000 ) ) ;
#145 = DIRECTION ( 'NONE',  ( -3.491481338843133000E-015, -2.449293598294716800E-016, -1.000000000000000000 ) ) ;
#146 = DIRECTION ( 'NONE',  ( 1.000000000000000000, 3.061616997868381700E-016, -3.491481338843133400E-015 ) ) ;
#147 = APPROVAL_DATE_TIME ( #96, #79 ) ;
#148 = VERTEX_POINT ( 'NONE', #154 ) ;
#149 = AXIS2_PLACEMENT_3D ( 'NONE', #111, #46, #198 ) ;
#150 = CARTESIAN_POINT ( 'NONE',  ( 0.0000000000000000000, 0.0000000000000000000, 0.0000000000000000000 ) ) ;
#151 = DIRECTION ( 'NONE',  ( -3.491481338843133400E-015, -3.061616997868392000E-016, -1.000000000000000000 ) ) ;
#152 = CC_DESIGN_APPROVAL ( #166, ( #53 ) ) ;
#153 = COORDINATED_UNIVERSAL_TIME_OFFSET ( 8, 0, .BEHIND. ) ;
#154 = CARTESIAN_POINT ( 'NONE',  ( -1.530808498934189400E-016, 0.4999999999999996100, -3.032960542342103800E-032 ) ) ;
#155 = APPROVAL_PERSON_ORGANIZATION ( #8, #166, #131 ) ;
#156 = ORIENTED_EDGE ( 'NONE', *, *, #175, .T. ) ;
#157 = COORDINATED_UNIVERSAL_TIME_OFFSET ( 8, 0, .BEHIND. ) ;
#158 = ORIENTED_EDGE ( 'NONE', *, *, #199, .T. ) ;
#159 = EDGE_CURVE ( 'NONE', #178, #122, #94, .T. ) ;
#160 = ORIENTED_EDGE ( 'NONE', *, *, #77, .T. ) ;
#161 = CARTESIAN_POINT ( 'NONE',  ( 3.749399456654637500E-032, -1.224646799147351500E-016, 0.0000000000000000000 ) ) ;
#162 = LOCAL_TIME ( 17, 6, 59.00000000000000000, #103 ) ;
#163 = APPROVAL ( #137, 'UNSPECIFIED' ) ;
#164 = CLOSED_SHELL ( 'NONE', ( #42, #130, #192, #209, #60 ) ) ;
#165 = PERSON_AND_ORGANIZATION_ROLE ( 'design_owner' ) ;
#166 = APPROVAL ( #102, 'UNSPECIFIED' ) ;
#167 = FACE_OUTER_BOUND ( 'NONE', #80, .T. ) ;
#168 = CARTESIAN_POINT ( 'NONE',  ( 0.0000000000000000000, 0.0000000000000000000, 0.0000000000000000000 ) ) ;
#169 = PERSON_AND_ORGANIZATION_ROLE ( 'design_supplier' ) ;
#170 = CC_DESIGN_PERSON_AND_ORGANIZATION_ASSIGNMENT ( #93, #169, ( #53 ) ) ;
#171 = PRODUCT_DEFINITION ( 'UNKNOWN', '', #53, #43 ) ;
#172 = VECTOR ( 'NONE', #31, 39.37007874015748100 ) ;
#173 = CC_DESIGN_DATE_AND_TIME_ASSIGNMENT ( #2, #1, ( #171 ) ) ;
#174 = DIRECTION ( 'NONE',  ( -0.0000000000000000000, -0.0000000000000000000, -1.000000000000000000 ) ) ;
#175 = EDGE_CURVE ( 'NONE', #11, #178, #190, .T. ) ;
#176 = DIRECTION ( 'NONE',  ( 3.061616997868381700E-016, -1.000000000000000000, -0.0000000000000000000 ) ) ;
#177 = DIRECTION ( 'NONE',  ( 1.000000000000000000, 0.0000000000000000000, 0.0000000000000000000 ) ) ;
#178 = VERTEX_POINT ( 'NONE', #14 ) ;
#179 = VERTEX_POINT ( 'NONE', #45 ) ;
#180 = APPLICATION_CONTEXT ( 'configuration controlled 3d designs of mechanical parts and assemblies' ) ;
#181 = DIRECTION ( 'NONE',  ( 1.000000000000000000, 3.061616997868381700E-016, 0.0000000000000000000 ) ) ;
#182 = MECHANICAL_CONTEXT ( 'NONE', #128, 'mechanical' ) ;
#183 = FACE_OUTER_BOUND ( 'NONE', #187, .T. ) ;
#184 = ORIENTED_EDGE ( 'NONE', *, *, #89, .T. ) ;
#185 = ORIENTED_EDGE ( 'NONE', *, *, #19, .T. ) ;
#186 = LOCAL_TIME ( 17, 6, 59.00000000000000000, #157 ) ;
#187 = EDGE_LOOP ( 'NONE', ( #3, #156, #13, #119 ) ) ;
#188 = PERSON_AND_ORGANIZATION ( #55, #74 ) ;
#189 = CARTESIAN_POINT ( 'NONE',  ( 0.0000000000000000000, 0.0000000000000000000, 0.0000000000000000000 ) ) ;
#190 = LINE ( 'NONE', #39, #172 ) ;
#191 = AXIS2_PLACEMENT_3D ( 'NONE', #168, #73, #151 ) ;
#192 = ADVANCED_FACE ( 'NONE', ( #104 ), #134, .T. ) ;
#193 = DIRECTION ( 'NONE',  ( 3.061616997868381700E-016, -1.000000000000000000, -0.0000000000000000000 ) ) ;
#194 = APPLICATION_PROTOCOL_DEFINITION ( 'international standard', 'config_control_design', 1994, #128 ) ;
#195 = AXIS2_PLACEMENT_3D ( 'NONE', #30, #82, #129 ) ;
#196 = CALENDAR_DATE ( 2016, 22, 12 ) ;
#197 = LOCAL_TIME ( 17, 6, 59.00000000000000000, #153 ) ;
#198 = DIRECTION ( 'NONE',  ( -3.491481338843133700E-015, -3.061616997868392500E-016, -1.000000000000000000 ) ) ;
#199 = EDGE_CURVE ( 'NONE', #179, #11, #125, .T. ) ;
#200 = UNCERTAINTY_MEASURE_WITH_UNIT (LENGTH_MEASURE( 1.000000000000000100E-005 ), #61, 'distance_accuracy_value', 'NONE');
#201 = APPROVAL_DATE_TIME ( #120, #163 ) ;
#202 = ORIENTED_EDGE ( 'NONE', *, *, #19, .F. ) ;
#203 = APPROVAL_ROLE ( '' ) ;
#204 = CARTESIAN_POINT ( 'NONE',  ( 4.424291358852469000E-032, -1.445083222993873600E-016, 0.0000000000000000000 ) ) ;
#205 = COORDINATED_UNIVERSAL_TIME_OFFSET ( 8, 0, .BEHIND. ) ;
#206 = ORIENTED_EDGE ( 'NONE', *, *, #92, .F. ) ;
#207 = CARTESIAN_POINT ( 'NONE',  ( 0.0000000000000000000, 0.0000000000000000000, 0.0000000000000000000 ) ) ;
#208 = DIRECTION ( 'NONE',  ( 1.000000000000000000, 3.061616997868381700E-016, -3.491481338843133000E-015 ) ) ;
#209 = ADVANCED_FACE ( 'NONE', ( #20 ), #75, .F. ) ;
#210 =( LENGTH_UNIT ( ) NAMED_UNIT ( * ) SI_UNIT ( $, .METRE. ) );
#211 = EDGE_LOOP ( 'NONE', ( #141, #117, #64, #202 ) ) ;
#212 = DIRECTION ( 'NONE',  ( 1.000000000000000000, 3.061616997868381700E-016, 0.0000000000000000000 ) ) ;
#213 =( GEOMETRIC_REPRESENTATION_CONTEXT ( 3 ) GLOBAL_UNCERTAINTY_ASSIGNED_CONTEXT ( ( #200 ) ) GLOBAL_UNIT_ASSIGNED_CONTEXT ( ( #61, #115, #16 ) ) REPRESENTATION_CONTEXT ( 'NONE', 'WORKASPACE' ) );
ENDSEC;
END-ISO-10303-21;
