ISO-10303-21;
HEADER;
FILE_DESCRIPTION (( 'STEP AP203' ),
    '1' );
FILE_NAME ('1_2in CORNER FILLER 16 Ga.STEP',
    '2016-12-23T01:07:47',
    ( 'temp' ),
    ( '' ),
    'SwSTEP 2.0',
    'SolidWorks 2016',
    '' );
FILE_SCHEMA (( 'CONFIG_CONTROL_DESIGN' ));
ENDSEC;

DATA;
#1 = VECTOR ( 'NONE', #43, 39.37007874015748100 ) ;
#2 = CARTESIAN_POINT ( 'NONE',  ( -1.745740669421565300E-015, -1.224646799147356900E-016, -0.4999999999999996100 ) ) ;
#3 = CARTESIAN_POINT ( 'NONE',  ( 0.0000000000000000000, 0.0000000000000000000, 0.0000000000000000000 ) ) ;
#4 = PLANE ( 'NONE',  #53 ) ;
#5 = CC_DESIGN_PERSON_AND_ORGANIZATION_ASSIGNMENT ( #165, #148, ( #129 ) ) ;
#6 = ADVANCED_FACE ( 'NONE', ( #207 ), #161, .T. ) ;
#7 = ORIENTED_EDGE ( 'NONE', *, *, #172, .F. ) ;
#8 = CARTESIAN_POINT ( 'NONE',  ( 4.161833396886645300E-032, -1.359357947053559500E-016, 0.0000000000000000000 ) ) ;
#9 =( NAMED_UNIT ( * ) SI_UNIT ( $, .STERADIAN. ) SOLID_ANGLE_UNIT ( ) );
#10 = ADVANCED_FACE ( 'NONE', ( #82 ), #145, .T. ) ;
#11 = MANIFOLD_SOLID_BREP ( 'Revolve1', #150 ) ;
#12 = CALENDAR_DATE ( 2016, 22, 12 ) ;
#13 = CIRCLE ( 'NONE', #143, 0.4999999999999996100 ) ;
#14 = PRODUCT_RELATED_PRODUCT_CATEGORY ( 'detail', '', ( #180 ) ) ;
#15 =( GEOMETRIC_REPRESENTATION_CONTEXT ( 3 ) GLOBAL_UNCERTAINTY_ASSIGNED_CONTEXT ( ( #31 ) ) GLOBAL_UNIT_ASSIGNED_CONTEXT ( ( #203, #205, #9 ) ) REPRESENTATION_CONTEXT ( 'NONE', 'WORKASPACE' ) );
#16 = DIRECTION ( 'NONE',  ( 0.0000000000000000000, 0.0000000000000000000, 1.000000000000000000 ) ) ;
#17 = LINE ( 'NONE', #131, #1 ) ;
#18 = CIRCLE ( 'NONE', #79, 0.5549999999999991600 ) ;
#19 = DIRECTION ( 'NONE',  ( 3.061616997868381700E-016, -1.000000000000000000, -0.0000000000000000000 ) ) ;
#20 = LOCAL_TIME ( 17, 7, 47.00000000000000000, #188 ) ;
#21 = SHAPE_DEFINITION_REPRESENTATION ( #142, #117 ) ;
#22 = ORIENTED_EDGE ( 'NONE', *, *, #41, .T. ) ;
#23 = CARTESIAN_POINT ( 'NONE',  ( 0.0000000000000000000, 0.0000000000000000000, 0.0000000000000000000 ) ) ;
#24 = CARTESIAN_POINT ( 'NONE',  ( -1.745740669421565300E-015, -1.292002373100460800E-016, -0.4999999999999996100 ) ) ;
#25 = AXIS2_PLACEMENT_3D ( 'NONE', #198, #69, #120 ) ;
#26 = APPROVAL_STATUS ( 'not_yet_approved' ) ;
#27 = LOCAL_TIME ( 17, 7, 47.00000000000000000, #96 ) ;
#28 = ORIENTED_EDGE ( 'NONE', *, *, #172, .T. ) ;
#29 = DIRECTION ( 'NONE',  ( -3.491481338843133400E-015, -1.068957861474239200E-030, -1.000000000000000000 ) ) ;
#30 = CC_DESIGN_PERSON_AND_ORGANIZATION_ASSIGNMENT ( #115, #137, ( #180 ) ) ;
#31 = UNCERTAINTY_MEASURE_WITH_UNIT (LENGTH_MEASURE( 1.000000000000000100E-005 ), #203, 'distance_accuracy_value', 'NONE');
#32 = EDGE_LOOP ( 'NONE', ( #104, #197, #200 ) ) ;
#33 = PRODUCT_DEFINITION_FORMATION_WITH_SPECIFIED_SOURCE ( 'ANY', '', #180, .NOT_KNOWN. ) ;
#34 = ADVANCED_FACE ( 'NONE', ( #196 ), #86, .T. ) ;
#35 = EDGE_CURVE ( 'NONE', #176, #211, #13, .T. ) ;
#36 = DIRECTION ( 'NONE',  ( 1.000000000000000000, 3.061616997868381700E-016, 0.0000000000000000000 ) ) ;
#37 = ORIENTED_EDGE ( 'NONE', *, *, #89, .F. ) ;
#38 = CALENDAR_DATE ( 2016, 22, 12 ) ;
#39 = AXIS2_PLACEMENT_3D ( 'NONE', #8, #19, #139 ) ;
#40 = CARTESIAN_POINT ( 'NONE',  ( -1.937772143057936000E-015, -1.359357947053565500E-016, -0.5549999999999991600 ) ) ;
#41 = EDGE_CURVE ( 'NONE', #193, #110, #210, .T. ) ;
#42 = DIRECTION ( 'NONE',  ( 1.000000000000000000, 0.0000000000000000000, 0.0000000000000000000 ) ) ;
#43 = DIRECTION ( 'NONE',  ( 3.061616997868355000E-016, -1.000000000000000000, -7.739239892500145900E-016 ) ) ;
#44 =( LENGTH_UNIT ( ) NAMED_UNIT ( * ) SI_UNIT ( $, .METRE. ) );
#45 = CC_DESIGN_APPROVAL ( #64, ( #33 ) ) ;
#46 = VECTOR ( 'NONE', #73, 39.37007874015748100 ) ;
#47 = CARTESIAN_POINT ( 'NONE',  ( 0.0000000000000000000, 0.0000000000000000000, 0.0000000000000000000 ) ) ;
#48 = ORIENTED_EDGE ( 'NONE', *, *, #133, .F. ) ;
#49 = AXIS2_PLACEMENT_3D ( 'NONE', #24, #66, #160 ) ;
#50 = LOCAL_TIME ( 17, 7, 47.00000000000000000, #157 ) ;
#51 = ORIENTED_EDGE ( 'NONE', *, *, #170, .F. ) ;
#52 = CARTESIAN_POINT ( 'NONE',  ( 3.749399456654637500E-032, -1.224646799147351500E-016, 0.0000000000000000000 ) ) ;
#53 = AXIS2_PLACEMENT_3D ( 'NONE', #181, #107, #70 ) ;
#54 = DESIGN_CONTEXT ( 'detailed design', #141, 'design' ) ;
#55 = APPLICATION_PROTOCOL_DEFINITION ( 'international standard', 'config_control_design', 1994, #141 ) ;
#56 = CARTESIAN_POINT ( 'NONE',  ( -1.530808498934189400E-016, 0.4999999999999996100, -3.032960542342103800E-032 ) ) ;
#57 = PERSON_AND_ORGANIZATION_ROLE ( 'classification_officer' ) ;
#58 = APPROVAL_PERSON_ORGANIZATION ( #88, #199, #163 ) ;
#59 = COORDINATED_UNIVERSAL_TIME_OFFSET ( 8, 0, .BEHIND. ) ;
#60 = ORIENTED_EDGE ( 'NONE', *, *, #35, .T. ) ;
#61 = CARTESIAN_POINT ( 'NONE',  ( 0.0000000000000000000, 0.0000000000000000000, 0.0000000000000000000 ) ) ;
#62 = AXIS2_PLACEMENT_3D ( 'NONE', #182, #167, #90 ) ;
#63 = APPROVAL_PERSON_ORGANIZATION ( #138, #64, #186 ) ;
#64 = APPROVAL ( #201, 'UNSPECIFIED' ) ;
#65 = LOCAL_TIME ( 17, 7, 47.00000000000000000, #183 ) ;
#66 = DIRECTION ( 'NONE',  ( 3.061616997868381700E-016, -1.000000000000000000, -0.0000000000000000000 ) ) ;
#67 = CC_DESIGN_SECURITY_CLASSIFICATION ( #134, ( #33 ) ) ;
#68 = APPROVAL_DATE_TIME ( #204, #64 ) ;
#69 = DIRECTION ( 'NONE',  ( 0.0000000000000000000, 0.0000000000000000000, 1.000000000000000000 ) ) ;
#70 = DIRECTION ( 'NONE',  ( -3.491481338843133000E-015, -3.061616997868392500E-016, -1.000000000000000000 ) ) ;
#71 = CC_DESIGN_APPROVAL ( #199, ( #134 ) ) ;
#72 = CARTESIAN_POINT ( 'NONE',  ( 0.4999999999999996100, 3.061616997868379900E-017, 0.0000000000000000000 ) ) ;
#73 = DIRECTION ( 'NONE',  ( 1.000000000000000000, 6.123233995736737700E-017, 0.0000000000000000000 ) ) ;
#74 = ORIENTED_EDGE ( 'NONE', *, *, #179, .T. ) ;
#75 = DIRECTION ( 'NONE',  ( -3.491481338843133400E-015, -3.061616997868392500E-016, -1.000000000000000000 ) ) ;
#76 = CARTESIAN_POINT ( 'NONE',  ( -1.699197433816948000E-016, 0.5549999999999991600, 4.256581940875041700E-017 ) ) ;
#77 = APPROVAL_ROLE ( '' ) ;
#78 = CALENDAR_DATE ( 2016, 22, 12 ) ;
#79 = AXIS2_PLACEMENT_3D ( 'NONE', #61, #154, #75 ) ;
#80 = PERSON_AND_ORGANIZATION ( #164, #174 ) ;
#81 = DATE_AND_TIME ( #78, #50 ) ;
#82 = FACE_OUTER_BOUND ( 'NONE', #166, .T. ) ;
#83 = DIRECTION ( 'NONE',  ( 1.000000000000000000, 0.0000000000000000000, -0.0000000000000000000 ) ) ;
#84 = CC_DESIGN_DATE_AND_TIME_ASSIGNMENT ( #118, #153, ( #129 ) ) ;
#85 = VERTEX_POINT ( 'NONE', #178 ) ;
#86 = PLANE ( 'NONE',  #49 ) ;
#87 = DIRECTION ( 'NONE',  ( -3.491481338843133400E-015, -1.068957861474239200E-030, -1.000000000000000000 ) ) ;
#88 = PERSON_AND_ORGANIZATION ( #164, #174 ) ;
#89 = EDGE_CURVE ( 'NONE', #176, #193, #121, .T. ) ;
#90 = DIRECTION ( 'NONE',  ( -3.491481338843133400E-015, -3.061616997868392000E-016, -1.000000000000000000 ) ) ;
#91 = DIRECTION ( 'NONE',  ( 1.000000000000000000, 3.061616997868381700E-016, -3.491481338843133400E-015 ) ) ;
#92 = APPLICATION_CONTEXT ( 'configuration controlled 3d designs of mechanical parts and assemblies' ) ;
#93 = CIRCLE ( 'NONE', #140, 0.4999999999999996100 ) ;
#94 = APPROVAL_PERSON_ORGANIZATION ( #102, #124, #77 ) ;
#95 = CC_DESIGN_APPROVAL ( #124, ( #129 ) ) ;
#96 = COORDINATED_UNIVERSAL_TIME_OFFSET ( 8, 0, .BEHIND. ) ;
#97 = DATE_AND_TIME ( #206, #65 ) ;
#98 = EDGE_LOOP ( 'NONE', ( #37, #128, #51, #162 ) ) ;
#99 = EDGE_LOOP ( 'NONE', ( #189, #146, #156 ) ) ;
#100 = CARTESIAN_POINT ( 'NONE',  ( 0.0000000000000000000, 0.0000000000000000000, 0.0000000000000000000 ) ) ;
#101 = CIRCLE ( 'NONE', #25, 0.5549999999999991600 ) ;
#102 = PERSON_AND_ORGANIZATION ( #164, #174 ) ;
#103 = APPROVAL_DATE_TIME ( #158, #124 ) ;
#104 = ORIENTED_EDGE ( 'NONE', *, *, #133, .T. ) ;
#105 = DIRECTION ( 'NONE',  ( 3.061616997868381700E-016, -1.000000000000000000, -0.0000000000000000000 ) ) ;
#106 = APPROVAL_STATUS ( 'not_yet_approved' ) ;
#107 = DIRECTION ( 'NONE',  ( 1.000000000000000000, 3.061616997868381700E-016, -3.491481338843133000E-015 ) ) ;
#108 = DIRECTION ( 'NONE',  ( -3.491481338843133700E-015, -2.449293598294718700E-016, -1.000000000000000000 ) ) ;
#109 = FACE_OUTER_BOUND ( 'NONE', #32, .T. ) ;
#110 = VERTEX_POINT ( 'NONE', #40 ) ;
#111 = PERSON_AND_ORGANIZATION ( #164, #174 ) ;
#112 = CC_DESIGN_PERSON_AND_ORGANIZATION_ASSIGNMENT ( #80, #136, ( #33 ) ) ;
#113 = CC_DESIGN_PERSON_AND_ORGANIZATION_ASSIGNMENT ( #144, #168, ( #33 ) ) ;
#114 = CARTESIAN_POINT ( 'NONE',  ( 0.0000000000000000000, 0.0000000000000000000, 0.0000000000000000000 ) ) ;
#115 = PERSON_AND_ORGANIZATION ( #164, #174 ) ;
#116 = AXIS2_PLACEMENT_3D ( 'NONE', #23, #169, #87 ) ;
#117 = ADVANCED_BREP_SHAPE_REPRESENTATION ( '1_2in CORNER FILLER 16 Ga', ( #11, #127 ), #15 ) ;
#118 = DATE_AND_TIME ( #38, #149 ) ;
#119 = DATE_TIME_ROLE ( 'classification_date' ) ;
#120 = DIRECTION ( 'NONE',  ( 1.000000000000000000, 0.0000000000000000000, 0.0000000000000000000 ) ) ;
#121 = CIRCLE ( 'NONE', #62, 0.4999999999999996100 ) ;
#122 = DIRECTION ( 'NONE',  ( -0.0000000000000000000, -0.0000000000000000000, -1.000000000000000000 ) ) ;
#123 = ORIENTED_EDGE ( 'NONE', *, *, #152, .T. ) ;
#124 = APPROVAL ( #26, 'UNSPECIFIED' ) ;
#125 = VECTOR ( 'NONE', #108, 39.37007874015748100 ) ;
#126 = SECURITY_CLASSIFICATION_LEVEL ( 'unclassified' ) ;
#127 = AXIS2_PLACEMENT_3D ( 'NONE', #100, #202, #42 ) ;
#128 = ORIENTED_EDGE ( 'NONE', *, *, #179, .F. ) ;
#129 = PRODUCT_DEFINITION ( 'UNKNOWN', '', #33, #54 ) ;
#130 = EDGE_CURVE ( 'NONE', #110, #85, #151, .T. ) ;
#131 = CARTESIAN_POINT ( 'NONE',  ( -1.699197433816948000E-016, 0.5549999999999991600, 4.256581940875041700E-017 ) ) ;
#132 = AXIS2_PLACEMENT_3D ( 'NONE', #114, #16, #83 ) ;
#133 = EDGE_CURVE ( 'NONE', #193, #211, #93, .T. ) ;
#134 = SECURITY_CLASSIFICATION ( '', '', #126 ) ;
#135 = DIRECTION ( 'NONE',  ( 1.000000000000000000, 0.0000000000000000000, 0.0000000000000000000 ) ) ;
#136 = PERSON_AND_ORGANIZATION_ROLE ( 'creator' ) ;
#137 = PERSON_AND_ORGANIZATION_ROLE ( 'design_owner' ) ;
#138 = PERSON_AND_ORGANIZATION ( #164, #174 ) ;
#139 = DIRECTION ( 'NONE',  ( 1.000000000000000000, 3.061616997868381700E-016, 0.0000000000000000000 ) ) ;
#140 = AXIS2_PLACEMENT_3D ( 'NONE', #52, #105, #36 ) ;
#141 = APPLICATION_CONTEXT ( 'configuration controlled 3d designs of mechanical parts and assemblies' ) ;
#142 = PRODUCT_DEFINITION_SHAPE ( 'NONE', 'NONE',  #129 ) ;
#143 = AXIS2_PLACEMENT_3D ( 'NONE', #47, #122, #135 ) ;
#144 = PERSON_AND_ORGANIZATION ( #164, #174 ) ;
#145 = PLANE ( 'NONE',  #132 ) ;
#146 = ORIENTED_EDGE ( 'NONE', *, *, #130, .F. ) ;
#147 = CC_DESIGN_DATE_AND_TIME_ASSIGNMENT ( #97, #119, ( #134 ) ) ;
#148 = PERSON_AND_ORGANIZATION_ROLE ( 'creator' ) ;
#149 = LOCAL_TIME ( 17, 7, 47.00000000000000000, #59 ) ;
#150 = CLOSED_SHELL ( 'NONE', ( #175, #34, #6, #177, #10 ) ) ;
#151 = CIRCLE ( 'NONE', #39, 0.5549999999999991600 ) ;
#152 = EDGE_CURVE ( 'NONE', #85, #209, #101, .T. ) ;
#153 = DATE_TIME_ROLE ( 'creation_date' ) ;
#154 = DIRECTION ( 'NONE',  ( 1.000000000000000000, 3.061616997868381700E-016, -3.491481338843133400E-015 ) ) ;
#155 = LINE ( 'NONE', #213, #46 ) ;
#156 = ORIENTED_EDGE ( 'NONE', *, *, #170, .T. ) ;
#157 = COORDINATED_UNIVERSAL_TIME_OFFSET ( 8, 0, .BEHIND. ) ;
#158 = DATE_AND_TIME ( #12, #20 ) ;
#159 = SPHERICAL_SURFACE ( 'NONE', #190, 0.4999999999999996100 ) ;
#160 = DIRECTION ( 'NONE',  ( 1.000000000000000000, 3.061616997868381700E-016, 0.0000000000000000000 ) ) ;
#161 = SPHERICAL_SURFACE ( 'NONE', #116, 0.5549999999999991600 ) ;
#162 = ORIENTED_EDGE ( 'NONE', *, *, #41, .F. ) ;
#163 = APPROVAL_ROLE ( '' ) ;
#164 = PERSON ( 'UNSPECIFIED', 'UNSPECIFIED', 'UNSPECIFIED', ('UNSPECIFIED'), ('UNSPECIFIED'), ('UNSPECIFIED') ) ;
#165 = PERSON_AND_ORGANIZATION ( #164, #174 ) ;
#166 = EDGE_LOOP ( 'NONE', ( #60, #28, #123, #74 ) ) ;
#167 = DIRECTION ( 'NONE',  ( -1.000000000000000000, -3.061616997868381700E-016, 3.491481338843133400E-015 ) ) ;
#168 = PERSON_AND_ORGANIZATION_ROLE ( 'design_supplier' ) ;
#169 = DIRECTION ( 'NONE',  ( 1.000000000000000000, 3.061616997868381700E-016, -3.491481338843133400E-015 ) ) ;
#170 = EDGE_CURVE ( 'NONE', #110, #209, #18, .T. ) ;
#171 = EDGE_LOOP ( 'NONE', ( #194, #7, #48, #22 ) ) ;
#172 = EDGE_CURVE ( 'NONE', #211, #85, #155, .T. ) ;
#173 = CALENDAR_DATE ( 2016, 22, 12 ) ;
#174 = ORGANIZATION ( 'UNSPECIFIED', 'UNSPECIFIED', '' ) ;
#175 = ADVANCED_FACE ( 'NONE', ( #109 ), #159, .F. ) ;
#176 = VERTEX_POINT ( 'NONE', #56 ) ;
#177 = ADVANCED_FACE ( 'NONE', ( #187 ), #4, .F. ) ;
#178 = CARTESIAN_POINT ( 'NONE',  ( 0.5549999999999991600, 3.398394867633897600E-017, 0.0000000000000000000 ) ) ;
#179 = EDGE_CURVE ( 'NONE', #209, #176, #17, .T. ) ;
#180 = PRODUCT ( '1_2in CORNER FILLER 16 Ga', '1_2in CORNER FILLER 16 Ga', '', ( #185 ) ) ;
#181 = CARTESIAN_POINT ( 'NONE',  ( 0.0000000000000000000, 0.0000000000000000000, 0.0000000000000000000 ) ) ;
#182 = CARTESIAN_POINT ( 'NONE',  ( 0.0000000000000000000, 0.0000000000000000000, 0.0000000000000000000 ) ) ;
#183 = COORDINATED_UNIVERSAL_TIME_OFFSET ( 8, 0, .BEHIND. ) ;
#184 = APPLICATION_PROTOCOL_DEFINITION ( 'international standard', 'config_control_design', 1994, #92 ) ;
#185 = MECHANICAL_CONTEXT ( 'NONE', #92, 'mechanical' ) ;
#186 = APPROVAL_ROLE ( '' ) ;
#187 = FACE_OUTER_BOUND ( 'NONE', #98, .T. ) ;
#188 = COORDINATED_UNIVERSAL_TIME_OFFSET ( 8, 0, .BEHIND. ) ;
#189 = ORIENTED_EDGE ( 'NONE', *, *, #152, .F. ) ;
#190 = AXIS2_PLACEMENT_3D ( 'NONE', #3, #91, #29 ) ;
#191 = LENGTH_MEASURE_WITH_UNIT ( LENGTH_MEASURE( 0.02539999999999999900 ), #44 );
#192 = APPROVAL_DATE_TIME ( #81, #199 ) ;
#193 = VERTEX_POINT ( 'NONE', #195 ) ;
#194 = ORIENTED_EDGE ( 'NONE', *, *, #130, .T. ) ;
#195 = CARTESIAN_POINT ( 'NONE',  ( -1.745740669421565300E-015, -1.224646799147356900E-016, -0.4999999999999996100 ) ) ;
#196 = FACE_OUTER_BOUND ( 'NONE', #171, .T. ) ;
#197 = ORIENTED_EDGE ( 'NONE', *, *, #35, .F. ) ;
#198 = CARTESIAN_POINT ( 'NONE',  ( 0.0000000000000000000, 0.0000000000000000000, 0.0000000000000000000 ) ) ;
#199 = APPROVAL ( #106, 'UNSPECIFIED' ) ;
#200 = ORIENTED_EDGE ( 'NONE', *, *, #89, .T. ) ;
#201 = APPROVAL_STATUS ( 'not_yet_approved' ) ;
#202 = DIRECTION ( 'NONE',  ( 0.0000000000000000000, 0.0000000000000000000, 1.000000000000000000 ) ) ;
#203 =( CONVERSION_BASED_UNIT ( 'INCH', #191 ) LENGTH_UNIT ( ) NAMED_UNIT ( #208 ) );
#204 = DATE_AND_TIME ( #173, #27 ) ;
#205 =( NAMED_UNIT ( * ) PLANE_ANGLE_UNIT ( ) SI_UNIT ( $, .RADIAN. ) );
#206 = CALENDAR_DATE ( 2016, 22, 12 ) ;
#207 = FACE_OUTER_BOUND ( 'NONE', #99, .T. ) ;
#208 = DIMENSIONAL_EXPONENTS ( 1.000000000000000000, 0.0000000000000000000, 0.0000000000000000000, 0.0000000000000000000, 0.0000000000000000000, 0.0000000000000000000, 0.0000000000000000000 ) ;
#209 = VERTEX_POINT ( 'NONE', #76 ) ;
#210 = LINE ( 'NONE', #2, #125 ) ;
#211 = VERTEX_POINT ( 'NONE', #72 ) ;
#212 = CC_DESIGN_PERSON_AND_ORGANIZATION_ASSIGNMENT ( #111, #57, ( #134 ) ) ;
#213 = CARTESIAN_POINT ( 'NONE',  ( 0.4999999999999996100, 3.061616997868379900E-017, 0.0000000000000000000 ) ) ;
ENDSEC;
END-ISO-10303-21;
