ISO-10303-21;
HEADER;
FILE_DESCRIPTION (( 'STEP AP203' ),
    '1' );
FILE_NAME ('1_2in CORNER FILLER ,050 Alum.STEP',
    '2016-12-23T01:24:57',
    ( 'temp' ),
    ( '' ),
    'SwSTEP 2.0',
    'SolidWorks 2016',
    '' );
FILE_SCHEMA (( 'CONFIG_CONTROL_DESIGN' ));
ENDSEC;

DATA;
#1 = CARTESIAN_POINT ( 'NONE',  ( 0.5499999999999996000, 3.367778697655218200E-017, 0.0000000000000000000 ) ) ;
#2 = ADVANCED_FACE ( 'NONE', ( #111 ), #139, .F. ) ;
#3 = MANIFOLD_SOLID_BREP ( 'Revolve1', #185 ) ;
#4 = VERTEX_POINT ( 'NONE', #1 ) ;
#5 = APPROVAL ( #140, 'UNSPECIFIED' ) ;
#6 = ADVANCED_FACE ( 'NONE', ( #150 ), #63, .T. ) ;
#7 = LINE ( 'NONE', #8, #20 ) ;
#8 = CARTESIAN_POINT ( 'NONE',  ( -1.683889348827607500E-016, 0.5499999999999996000, 4.218234355822121400E-017 ) ) ;
#9 = AXIS2_PLACEMENT_3D ( 'NONE', #156, #203, #187 ) ;
#10 = CARTESIAN_POINT ( 'NONE',  ( 0.0000000000000000000, 0.0000000000000000000, 0.0000000000000000000 ) ) ;
#11 = EDGE_CURVE ( 'NONE', #152, #65, #7, .T. ) ;
#12 = DATE_AND_TIME ( #33, #96 ) ;
#13 = DIRECTION ( 'NONE',  ( -3.491481338843133000E-015, -3.061616997868392500E-016, -1.000000000000000000 ) ) ;
#14 = CALENDAR_DATE ( 2016, 22, 12 ) ;
#15 = APPROVAL ( #85, 'UNSPECIFIED' ) ;
#16 = DIRECTION ( 'NONE',  ( -3.491481338843133400E-015, -1.068957861474239200E-030, -1.000000000000000000 ) ) ;
#17 = ADVANCED_FACE ( 'NONE', ( #170 ), #164, .F. ) ;
#18 = DATE_AND_TIME ( #95, #212 ) ;
#19 = VECTOR ( 'NONE', #159, 39.37007874015748100 ) ;
#20 = VECTOR ( 'NONE', #48, 39.37007874015748100 ) ;
#21 = ORIENTED_EDGE ( 'NONE', *, *, #171, .T. ) ;
#22 = CARTESIAN_POINT ( 'NONE',  ( 0.0000000000000000000, 0.0000000000000000000, 0.0000000000000000000 ) ) ;
#23 = DIRECTION ( 'NONE',  ( 1.000000000000000000, 3.061616997868381700E-016, 0.0000000000000000000 ) ) ;
#24 = MECHANICAL_CONTEXT ( 'NONE', #173, 'mechanical' ) ;
#25 = COORDINATED_UNIVERSAL_TIME_OFFSET ( 8, 0, .BEHIND. ) ;
#26 = LINE ( 'NONE', #184, #117 ) ;
#27 = CARTESIAN_POINT ( 'NONE',  ( -1.683889348827607500E-016, 0.5499999999999996000, 4.218234355822121400E-017 ) ) ;
#28 = ORIENTED_EDGE ( 'NONE', *, *, #47, .T. ) ;
#29 = DESIGN_CONTEXT ( 'detailed design', #136, 'design' ) ;
#30 = APPROVAL ( #204, 'UNSPECIFIED' ) ;
#31 = APPLICATION_PROTOCOL_DEFINITION ( 'international standard', 'config_control_design', 1994, #136 ) ;
#32 = DIRECTION ( 'NONE',  ( 1.000000000000000000, 3.061616997868381700E-016, -3.491481338843133000E-015 ) ) ;
#33 = CALENDAR_DATE ( 2016, 22, 12 ) ;
#34 = ORIENTED_EDGE ( 'NONE', *, *, #131, .F. ) ;
#35 = EDGE_CURVE ( 'NONE', #65, #93, #89, .T. ) ;
#36 = CC_DESIGN_APPROVAL ( #30, ( #183 ) ) ;
#37 = APPROVAL_PERSON_ORGANIZATION ( #51, #30, #179 ) ;
#38 = ORIENTED_EDGE ( 'NONE', *, *, #171, .F. ) ;
#39 = AXIS2_PLACEMENT_3D ( 'NONE', #22, #119, #108 ) ;
#40 = PLANE ( 'NONE',  #39 ) ;
#41 = PRODUCT_DEFINITION ( 'UNKNOWN', '', #78, #29 ) ;
#42 = PERSON_AND_ORGANIZATION_ROLE ( 'classification_officer' ) ;
#43 = DIRECTION ( 'NONE',  ( -1.000000000000000000, -3.061616997868381700E-016, 3.491481338843133400E-015 ) ) ;
#44 =( LENGTH_UNIT ( ) NAMED_UNIT ( * ) SI_UNIT ( $, .METRE. ) );
#45 = FACE_OUTER_BOUND ( 'NONE', #146, .T. ) ;
#46 = CARTESIAN_POINT ( 'NONE',  ( -1.745740669421565300E-015, -1.224646799147356900E-016, -0.4999999999999996100 ) ) ;
#47 = EDGE_CURVE ( 'NONE', #172, #152, #213, .T. ) ;
#48 = DIRECTION ( 'NONE',  ( 3.061616997868352600E-016, -1.000000000000000000, -8.436468711644244500E-016 ) ) ;
#49 =( GEOMETRIC_REPRESENTATION_CONTEXT ( 3 ) GLOBAL_UNCERTAINTY_ASSIGNED_CONTEXT ( ( #169 ) ) GLOBAL_UNIT_ASSIGNED_CONTEXT ( ( #134, #118, #141 ) ) REPRESENTATION_CONTEXT ( 'NONE', 'WORKASPACE' ) );
#50 = CC_DESIGN_PERSON_AND_ORGANIZATION_ASSIGNMENT ( #166, #42, ( #183 ) ) ;
#51 = PERSON_AND_ORGANIZATION ( #82, #120 ) ;
#52 = LENGTH_MEASURE_WITH_UNIT ( LENGTH_MEASURE( 0.02539999999999999900 ), #44 );
#53 = EDGE_LOOP ( 'NONE', ( #115, #34, #28 ) ) ;
#54 = ORIENTED_EDGE ( 'NONE', *, *, #35, .F. ) ;
#55 = APPLICATION_PROTOCOL_DEFINITION ( 'international standard', 'config_control_design', 1994, #173 ) ;
#56 = COORDINATED_UNIVERSAL_TIME_OFFSET ( 8, 0, .BEHIND. ) ;
#57 = AXIS2_PLACEMENT_3D ( 'NONE', #158, #147, #149 ) ;
#58 = AXIS2_PLACEMENT_3D ( 'NONE', #10, #32, #13 ) ;
#59 = PLANE ( 'NONE',  #165 ) ;
#60 = DIRECTION ( 'NONE',  ( 0.0000000000000000000, 0.0000000000000000000, 1.000000000000000000 ) ) ;
#61 = DIRECTION ( 'NONE',  ( 3.061616997868381700E-016, -1.000000000000000000, -0.0000000000000000000 ) ) ;
#62 = LOCAL_TIME ( 17, 24, 57.00000000000000000, #56 ) ;
#63 = SPHERICAL_SURFACE ( 'NONE', #77, 0.5499999999999996000 ) ;
#64 = EDGE_CURVE ( 'NONE', #4, #152, #98, .T. ) ;
#65 = VERTEX_POINT ( 'NONE', #190 ) ;
#66 = CC_DESIGN_APPROVAL ( #5, ( #78 ) ) ;
#67 = ORIENTED_EDGE ( 'NONE', *, *, #64, .T. ) ;
#68 = CC_DESIGN_SECURITY_CLASSIFICATION ( #183, ( #78 ) ) ;
#69 = CARTESIAN_POINT ( 'NONE',  ( -1.745740669421565300E-015, -1.224646799147356900E-016, -0.4999999999999996100 ) ) ;
#70 = ORIENTED_EDGE ( 'NONE', *, *, #197, .T. ) ;
#71 = CARTESIAN_POINT ( 'NONE',  ( 0.0000000000000000000, 0.0000000000000000000, 0.0000000000000000000 ) ) ;
#72 = APPROVAL_ROLE ( '' ) ;
#73 = DIRECTION ( 'NONE',  ( -0.0000000000000000000, -0.0000000000000000000, -1.000000000000000000 ) ) ;
#74 = ORIENTED_EDGE ( 'NONE', *, *, #91, .T. ) ;
#75 = PERSON_AND_ORGANIZATION_ROLE ( 'creator' ) ;
#76 = CC_DESIGN_PERSON_AND_ORGANIZATION_ASSIGNMENT ( #101, #110, ( #41 ) ) ;
#77 = AXIS2_PLACEMENT_3D ( 'NONE', #71, #79, #16 ) ;
#78 = PRODUCT_DEFINITION_FORMATION_WITH_SPECIFIED_SOURCE ( 'ANY', '', #102, .NOT_KNOWN. ) ;
#79 = DIRECTION ( 'NONE',  ( 1.000000000000000000, 3.061616997868381700E-016, -3.491481338843133400E-015 ) ) ;
#80 = AXIS2_PLACEMENT_3D ( 'NONE', #142, #43, #178 ) ;
#81 = COORDINATED_UNIVERSAL_TIME_OFFSET ( 8, 0, .BEHIND. ) ;
#82 = PERSON ( 'UNSPECIFIED', 'UNSPECIFIED', 'UNSPECIFIED', ('UNSPECIFIED'), ('UNSPECIFIED'), ('UNSPECIFIED') ) ;
#83 = CARTESIAN_POINT ( 'NONE',  ( 0.4999999999999996100, 3.061616997868379900E-017, 0.0000000000000000000 ) ) ;
#84 = PERSON_AND_ORGANIZATION ( #82, #120 ) ;
#85 = APPROVAL_STATUS ( 'not_yet_approved' ) ;
#86 = DIRECTION ( 'NONE',  ( 3.061616997868381700E-016, -1.000000000000000000, -0.0000000000000000000 ) ) ;
#87 = DATE_TIME_ROLE ( 'creation_date' ) ;
#88 = COORDINATED_UNIVERSAL_TIME_OFFSET ( 8, 0, .BEHIND. ) ;
#89 = CIRCLE ( 'NONE', #80, 0.4999999999999996100 ) ;
#90 = DIRECTION ( 'NONE',  ( 1.000000000000000000, 3.061616997868381700E-016, 0.0000000000000000000 ) ) ;
#91 = EDGE_CURVE ( 'NONE', #93, #172, #208, .T. ) ;
#92 = CARTESIAN_POINT ( 'NONE',  ( 0.0000000000000000000, 0.0000000000000000000, 0.0000000000000000000 ) ) ;
#93 = VERTEX_POINT ( 'NONE', #69 ) ;
#94 = ORIENTED_EDGE ( 'NONE', *, *, #35, .T. ) ;
#95 = CALENDAR_DATE ( 2016, 22, 12 ) ;
#96 = LOCAL_TIME ( 17, 24, 57.00000000000000000, #81 ) ;
#97 = PRODUCT_DEFINITION_SHAPE ( 'NONE', 'NONE',  #41 ) ;
#98 = CIRCLE ( 'NONE', #138, 0.5499999999999996000 ) ;
#99 = ORIENTED_EDGE ( 'NONE', *, *, #197, .F. ) ;
#100 = PRODUCT_RELATED_PRODUCT_CATEGORY ( 'detail', '', ( #102 ) ) ;
#101 = PERSON_AND_ORGANIZATION ( #82, #120 ) ;
#102 = PRODUCT ( '1_2in CORNER FILLER ,050 Alum', '1_2in CORNER FILLER ,050 Alum', '', ( #24 ) ) ;
#103 = CC_DESIGN_APPROVAL ( #15, ( #41 ) ) ;
#104 = CIRCLE ( 'NONE', #177, 0.4999999999999996100 ) ;
#105 = AXIS2_PLACEMENT_3D ( 'NONE', #189, #192, #137 ) ;
#106 = SHAPE_DEFINITION_REPRESENTATION ( #97, #200 ) ;
#107 = ORIENTED_EDGE ( 'NONE', *, *, #205, .T. ) ;
#108 = DIRECTION ( 'NONE',  ( 1.000000000000000000, 0.0000000000000000000, -0.0000000000000000000 ) ) ;
#109 = CARTESIAN_POINT ( 'NONE',  ( 4.124339402320102400E-032, -1.347111479062087000E-016, 0.0000000000000000000 ) ) ;
#110 = PERSON_AND_ORGANIZATION_ROLE ( 'creator' ) ;
#111 = FACE_OUTER_BOUND ( 'NONE', #201, .T. ) ;
#112 = LOCAL_TIME ( 17, 24, 57.00000000000000000, #25 ) ;
#113 = DATE_AND_TIME ( #14, #62 ) ;
#114 = COORDINATED_UNIVERSAL_TIME_OFFSET ( 8, 0, .BEHIND. ) ;
#115 = ORIENTED_EDGE ( 'NONE', *, *, #64, .F. ) ;
#116 = DATE_TIME_ROLE ( 'classification_date' ) ;
#117 = VECTOR ( 'NONE', #202, 39.37007874015748100 ) ;
#118 =( NAMED_UNIT ( * ) PLANE_ANGLE_UNIT ( ) SI_UNIT ( $, .RADIAN. ) );
#119 = DIRECTION ( 'NONE',  ( 0.0000000000000000000, 0.0000000000000000000, 1.000000000000000000 ) ) ;
#120 = ORGANIZATION ( 'UNSPECIFIED', 'UNSPECIFIED', '' ) ;
#121 = CIRCLE ( 'NONE', #128, 0.5499999999999996000 ) ;
#122 = APPROVAL_DATE_TIME ( #12, #5 ) ;
#123 = PERSON_AND_ORGANIZATION_ROLE ( 'design_supplier' ) ;
#124 = CC_DESIGN_DATE_AND_TIME_ASSIGNMENT ( #18, #116, ( #183 ) ) ;
#125 = DATE_AND_TIME ( #130, #112 ) ;
#126 = PERSON_AND_ORGANIZATION ( #82, #120 ) ;
#127 = ORIENTED_EDGE ( 'NONE', *, *, #205, .F. ) ;
#128 = AXIS2_PLACEMENT_3D ( 'NONE', #109, #86, #23 ) ;
#129 = APPROVAL_PERSON_ORGANIZATION ( #84, #5, #193 ) ;
#130 = CALENDAR_DATE ( 2016, 22, 12 ) ;
#131 = EDGE_CURVE ( 'NONE', #172, #4, #121, .T. ) ;
#132 = CC_DESIGN_PERSON_AND_ORGANIZATION_ASSIGNMENT ( #160, #75, ( #78 ) ) ;
#133 = EDGE_LOOP ( 'NONE', ( #70, #21, #67, #191 ) ) ;
#134 =( CONVERSION_BASED_UNIT ( 'INCH', #52 ) LENGTH_UNIT ( ) NAMED_UNIT ( #167 ) );
#135 = CARTESIAN_POINT ( 'NONE',  ( 3.749399456654637500E-032, -1.224646799147351500E-016, 0.0000000000000000000 ) ) ;
#136 = APPLICATION_CONTEXT ( 'configuration controlled 3d designs of mechanical parts and assemblies' ) ;
#137 = DIRECTION ( 'NONE',  ( -3.491481338843133400E-015, -1.068957861474239200E-030, -1.000000000000000000 ) ) ;
#138 = AXIS2_PLACEMENT_3D ( 'NONE', #151, #60, #211 ) ;
#139 = PLANE ( 'NONE',  #58 ) ;
#140 = APPROVAL_STATUS ( 'not_yet_approved' ) ;
#141 =( NAMED_UNIT ( * ) SI_UNIT ( $, .STERADIAN. ) SOLID_ANGLE_UNIT ( ) );
#142 = CARTESIAN_POINT ( 'NONE',  ( 0.0000000000000000000, 0.0000000000000000000, 0.0000000000000000000 ) ) ;
#143 = CC_DESIGN_PERSON_AND_ORGANIZATION_ASSIGNMENT ( #155, #123, ( #78 ) ) ;
#144 = APPROVAL_DATE_TIME ( #125, #15 ) ;
#145 = ADVANCED_FACE ( 'NONE', ( #45 ), #59, .T. ) ;
#146 = EDGE_LOOP ( 'NONE', ( #157, #38, #127, #74 ) ) ;
#147 = DIRECTION ( 'NONE',  ( 0.0000000000000000000, 0.0000000000000000000, 1.000000000000000000 ) ) ;
#148 = CALENDAR_DATE ( 2016, 22, 12 ) ;
#149 = DIRECTION ( 'NONE',  ( 1.000000000000000000, 0.0000000000000000000, 0.0000000000000000000 ) ) ;
#150 = FACE_OUTER_BOUND ( 'NONE', #53, .T. ) ;
#151 = CARTESIAN_POINT ( 'NONE',  ( 0.0000000000000000000, 0.0000000000000000000, 0.0000000000000000000 ) ) ;
#152 = VERTEX_POINT ( 'NONE', #27 ) ;
#153 = CARTESIAN_POINT ( 'NONE',  ( -1.920314736363721800E-015, -1.347111479062092900E-016, -0.5499999999999996000 ) ) ;
#154 = APPROVAL_DATE_TIME ( #113, #30 ) ;
#155 = PERSON_AND_ORGANIZATION ( #82, #120 ) ;
#156 = CARTESIAN_POINT ( 'NONE',  ( 0.0000000000000000000, 0.0000000000000000000, 0.0000000000000000000 ) ) ;
#157 = ORIENTED_EDGE ( 'NONE', *, *, #131, .T. ) ;
#158 = CARTESIAN_POINT ( 'NONE',  ( 0.0000000000000000000, 0.0000000000000000000, 0.0000000000000000000 ) ) ;
#159 = DIRECTION ( 'NONE',  ( -3.491481338843133000E-015, -2.449293598294715800E-016, -1.000000000000000000 ) ) ;
#160 = PERSON_AND_ORGANIZATION ( #82, #120 ) ;
#161 = FACE_OUTER_BOUND ( 'NONE', #133, .T. ) ;
#162 = CARTESIAN_POINT ( 'NONE',  ( -1.745740669421565300E-015, -1.285879139104724700E-016, -0.4999999999999996100 ) ) ;
#163 = PERSON_AND_ORGANIZATION ( #82, #120 ) ;
#164 = SPHERICAL_SURFACE ( 'NONE', #105, 0.4999999999999996100 ) ;
#165 = AXIS2_PLACEMENT_3D ( 'NONE', #162, #180, #90 ) ;
#166 = PERSON_AND_ORGANIZATION ( #82, #120 ) ;
#167 = DIMENSIONAL_EXPONENTS ( 1.000000000000000000, 0.0000000000000000000, 0.0000000000000000000, 0.0000000000000000000, 0.0000000000000000000, 0.0000000000000000000, 0.0000000000000000000 ) ;
#168 = LOCAL_TIME ( 17, 24, 57.00000000000000000, #114 ) ;
#169 = UNCERTAINTY_MEASURE_WITH_UNIT (LENGTH_MEASURE( 1.000000000000000100E-005 ), #134, 'distance_accuracy_value', 'NONE');
#170 = FACE_OUTER_BOUND ( 'NONE', #181, .T. ) ;
#171 = EDGE_CURVE ( 'NONE', #188, #4, #26, .T. ) ;
#172 = VERTEX_POINT ( 'NONE', #153 ) ;
#173 = APPLICATION_CONTEXT ( 'configuration controlled 3d designs of mechanical parts and assemblies' ) ;
#174 = DATE_AND_TIME ( #148, #168 ) ;
#175 = DIRECTION ( 'NONE',  ( 1.000000000000000000, 3.061616997868381700E-016, 0.0000000000000000000 ) ) ;
#176 = APPROVAL_PERSON_ORGANIZATION ( #126, #15, #72 ) ;
#177 = AXIS2_PLACEMENT_3D ( 'NONE', #92, #73, #206 ) ;
#178 = DIRECTION ( 'NONE',  ( -3.491481338843133400E-015, -3.061616997868392000E-016, -1.000000000000000000 ) ) ;
#179 = APPROVAL_ROLE ( '' ) ;
#180 = DIRECTION ( 'NONE',  ( 3.061616997868381700E-016, -1.000000000000000000, -0.0000000000000000000 ) ) ;
#181 = EDGE_LOOP ( 'NONE', ( #107, #99, #94 ) ) ;
#182 = ORIENTED_EDGE ( 'NONE', *, *, #11, .F. ) ;
#183 = SECURITY_CLASSIFICATION ( '', '', #186 ) ;
#184 = CARTESIAN_POINT ( 'NONE',  ( 0.4999999999999996100, 3.061616997868379900E-017, 0.0000000000000000000 ) ) ;
#185 = CLOSED_SHELL ( 'NONE', ( #17, #145, #6, #2, #198 ) ) ;
#186 = SECURITY_CLASSIFICATION_LEVEL ( 'unclassified' ) ;
#187 = DIRECTION ( 'NONE',  ( -3.491481338843133000E-015, -3.061616997868392500E-016, -1.000000000000000000 ) ) ;
#188 = VERTEX_POINT ( 'NONE', #83 ) ;
#189 = CARTESIAN_POINT ( 'NONE',  ( 0.0000000000000000000, 0.0000000000000000000, 0.0000000000000000000 ) ) ;
#190 = CARTESIAN_POINT ( 'NONE',  ( -1.530808498934189400E-016, 0.4999999999999996100, -3.032960542342103800E-032 ) ) ;
#191 = ORIENTED_EDGE ( 'NONE', *, *, #11, .T. ) ;
#192 = DIRECTION ( 'NONE',  ( 1.000000000000000000, 3.061616997868381700E-016, -3.491481338843133400E-015 ) ) ;
#193 = APPROVAL_ROLE ( '' ) ;
#194 = ORIENTED_EDGE ( 'NONE', *, *, #91, .F. ) ;
#195 = CC_DESIGN_PERSON_AND_ORGANIZATION_ASSIGNMENT ( #163, #210, ( #102 ) ) ;
#196 = AXIS2_PLACEMENT_3D ( 'NONE', #135, #61, #175 ) ;
#197 = EDGE_CURVE ( 'NONE', #65, #188, #104, .T. ) ;
#198 = ADVANCED_FACE ( 'NONE', ( #161 ), #40, .T. ) ;
#199 = CIRCLE ( 'NONE', #196, 0.4999999999999996100 ) ;
#200 = ADVANCED_BREP_SHAPE_REPRESENTATION ( '1_2in CORNER FILLER ,050 Alum', ( #3, #57 ), #49 ) ;
#201 = EDGE_LOOP ( 'NONE', ( #54, #182, #209, #194 ) ) ;
#202 = DIRECTION ( 'NONE',  ( 1.000000000000000000, 6.123233995736766000E-017, 0.0000000000000000000 ) ) ;
#203 = DIRECTION ( 'NONE',  ( 1.000000000000000000, 3.061616997868381700E-016, -3.491481338843133400E-015 ) ) ;
#204 = APPROVAL_STATUS ( 'not_yet_approved' ) ;
#205 = EDGE_CURVE ( 'NONE', #93, #188, #199, .T. ) ;
#206 = DIRECTION ( 'NONE',  ( 1.000000000000000000, 0.0000000000000000000, 0.0000000000000000000 ) ) ;
#207 = CC_DESIGN_DATE_AND_TIME_ASSIGNMENT ( #174, #87, ( #41 ) ) ;
#208 = LINE ( 'NONE', #46, #19 ) ;
#209 = ORIENTED_EDGE ( 'NONE', *, *, #47, .F. ) ;
#210 = PERSON_AND_ORGANIZATION_ROLE ( 'design_owner' ) ;
#211 = DIRECTION ( 'NONE',  ( 1.000000000000000000, 0.0000000000000000000, 0.0000000000000000000 ) ) ;
#212 = LOCAL_TIME ( 17, 24, 57.00000000000000000, #88 ) ;
#213 = CIRCLE ( 'NONE', #9, 0.5499999999999996000 ) ;
ENDSEC;
END-ISO-10303-21;
