ISO-10303-21;
HEADER;
FILE_DESCRIPTION (( 'STEP AP203' ),
    '1' );
FILE_NAME ('1_2in CORNER FILLER 14 Ga.STEP',
    '2016-12-23T01:07:32',
    ( 'temp' ),
    ( '' ),
    'SwSTEP 2.0',
    'SolidWorks 2016',
    '' );
FILE_SCHEMA (( 'CONFIG_CONTROL_DESIGN' ));
ENDSEC;

DATA;
#1 = PERSON_AND_ORGANIZATION_ROLE ( 'design_supplier' ) ;
#2 = VECTOR ( 'NONE', #209, 39.37007874015748100 ) ;
#3 = EDGE_CURVE ( 'NONE', #177, #132, #67, .T. ) ;
#4 = DIRECTION ( 'NONE',  ( 1.000000000000000000, 3.061616997868381700E-016, -3.491481338843133000E-015 ) ) ;
#5 = PERSON_AND_ORGANIZATION ( #195, #134 ) ;
#6 = CALENDAR_DATE ( 2016, 22, 12 ) ;
#7 = AXIS2_PLACEMENT_3D ( 'NONE', #99, #206, #40 ) ;
#8 = ADVANCED_BREP_SHAPE_REPRESENTATION ( '1_2in CORNER FILLER 14 Ga', ( #16, #107 ), #116 ) ;
#9 = VERTEX_POINT ( 'NONE', #44 ) ;
#10 = SPHERICAL_SURFACE ( 'NONE', #152, 0.5749999999999996200 ) ;
#11 = CARTESIAN_POINT ( 'NONE',  ( -1.745740669421565300E-015, -1.316495309083408300E-016, -0.4999999999999996100 ) ) ;
#12 = DIRECTION ( 'NONE',  ( -3.491481338843133000E-015, -3.061616997868392500E-016, -1.000000000000000000 ) ) ;
#13 = ORIENTED_EDGE ( 'NONE', *, *, #22, .F. ) ;
#14 = EDGE_CURVE ( 'NONE', #196, #42, #43, .T. ) ;
#15 = PRODUCT_DEFINITION ( 'UNKNOWN', '', #168, #49 ) ;
#16 = MANIFOLD_SOLID_BREP ( 'Revolve1', #27 ) ;
#17 = COORDINATED_UNIVERSAL_TIME_OFFSET ( 8, 0, .BEHIND. ) ;
#18 = CARTESIAN_POINT ( 'NONE',  ( 0.4999999999999996100, 3.061616997868379900E-017, 0.0000000000000000000 ) ) ;
#19 =( NAMED_UNIT ( * ) PLANE_ANGLE_UNIT ( ) SI_UNIT ( $, .RADIAN. ) );
#20 = CIRCLE ( 'NONE', #120, 0.5749999999999996200 ) ;
#21 = ORIENTED_EDGE ( 'NONE', *, *, #22, .T. ) ;
#22 = EDGE_CURVE ( 'NONE', #178, #196, #162, .T. ) ;
#23 = DIRECTION ( 'NONE',  ( 3.061616997868381700E-016, -1.000000000000000000, -0.0000000000000000000 ) ) ;
#24 = EDGE_CURVE ( 'NONE', #132, #178, #165, .T. ) ;
#25 = EDGE_LOOP ( 'NONE', ( #31, #13, #139, #203 ) ) ;
#26 = APPROVAL_ROLE ( '' ) ;
#27 = CLOSED_SHELL ( 'NONE', ( #200, #74, #101, #61, #183 ) ) ;
#28 = COORDINATED_UNIVERSAL_TIME_OFFSET ( 8, 0, .BEHIND. ) ;
#29 = AXIS2_PLACEMENT_3D ( 'NONE', #11, #149, #210 ) ;
#30 = CC_DESIGN_APPROVAL ( #108, ( #170 ) ) ;
#31 = ORIENTED_EDGE ( 'NONE', *, *, #14, .F. ) ;
#32 = PRODUCT_DEFINITION_SHAPE ( 'NONE', 'NONE',  #15 ) ;
#33 = EDGE_CURVE ( 'NONE', #9, #132, #35, .T. ) ;
#34 = ORIENTED_EDGE ( 'NONE', *, *, #52, .F. ) ;
#35 = LINE ( 'NONE', #18, #63 ) ;
#36 = PERSON_AND_ORGANIZATION ( #195, #134 ) ;
#37 = ORIENTED_EDGE ( 'NONE', *, *, #3, .T. ) ;
#38 = CALENDAR_DATE ( 2016, 22, 12 ) ;
#39 = DIMENSIONAL_EXPONENTS ( 1.000000000000000000, 0.0000000000000000000, 0.0000000000000000000, 0.0000000000000000000, 0.0000000000000000000, 0.0000000000000000000, 0.0000000000000000000 ) ;
#40 = DIRECTION ( 'NONE',  ( 1.000000000000000000, 0.0000000000000000000, 0.0000000000000000000 ) ) ;
#41 = EDGE_CURVE ( 'NONE', #196, #9, #51, .T. ) ;
#42 = VERTEX_POINT ( 'NONE', #212 ) ;
#43 = CIRCLE ( 'NONE', #45, 0.4999999999999996100 ) ;
#44 = CARTESIAN_POINT ( 'NONE',  ( 0.4999999999999996100, 3.061616997868379900E-017, 0.0000000000000000000 ) ) ;
#45 = AXIS2_PLACEMENT_3D ( 'NONE', #148, #111, #155 ) ;
#46 = DIRECTION ( 'NONE',  ( 1.000000000000000000, 3.061616997868381700E-016, 0.0000000000000000000 ) ) ;
#47 = APPROVAL_ROLE ( '' ) ;
#48 = CC_DESIGN_PERSON_AND_ORGANIZATION_ASSIGNMENT ( #5, #1, ( #168 ) ) ;
#49 = DESIGN_CONTEXT ( 'detailed design', #84, 'design' ) ;
#50 = LINE ( 'NONE', #193, #190 ) ;
#51 = CIRCLE ( 'NONE', #109, 0.4999999999999996100 ) ;
#52 = EDGE_CURVE ( 'NONE', #42, #9, #106, .T. ) ;
#53 = ORIENTED_EDGE ( 'NONE', *, *, #33, .F. ) ;
#54 = APPROVAL_DATE_TIME ( #192, #108 ) ;
#55 = CC_DESIGN_PERSON_AND_ORGANIZATION_ASSIGNMENT ( #71, #86, ( #180 ) ) ;
#56 = DATE_AND_TIME ( #138, #186 ) ;
#57 = APPROVAL_STATUS ( 'not_yet_approved' ) ;
#58 = DATE_TIME_ROLE ( 'creation_date' ) ;
#59 = CC_DESIGN_SECURITY_CLASSIFICATION ( #170, ( #168 ) ) ;
#60 = PERSON_AND_ORGANIZATION_ROLE ( 'creator' ) ;
#61 = ADVANCED_FACE ( 'NONE', ( #198 ), #113, .F. ) ;
#62 = ORIENTED_EDGE ( 'NONE', *, *, #88, .T. ) ;
#63 = VECTOR ( 'NONE', #173, 39.37007874015748100 ) ;
#64 = UNCERTAINTY_MEASURE_WITH_UNIT (LENGTH_MEASURE( 1.000000000000000100E-005 ), #166, 'distance_accuracy_value', 'NONE');
#65 = CC_DESIGN_DATE_AND_TIME_ASSIGNMENT ( #176, #97, ( #170 ) ) ;
#66 = ORIENTED_EDGE ( 'NONE', *, *, #24, .T. ) ;
#67 = CIRCLE ( 'NONE', #125, 0.5749999999999996200 ) ;
#68 = FACE_OUTER_BOUND ( 'NONE', #175, .T. ) ;
#69 = DIRECTION ( 'NONE',  ( -3.491481338843133700E-015, -3.061616997868392500E-016, -1.000000000000000000 ) ) ;
#70 = SPHERICAL_SURFACE ( 'NONE', #201, 0.4999999999999996100 ) ;
#71 = PERSON_AND_ORGANIZATION ( #195, #134 ) ;
#72 = CARTESIAN_POINT ( 'NONE',  ( -1.760429773774316800E-016, 0.5749999999999996200, 4.409972281086761100E-017 ) ) ;
#73 = APPROVAL ( #57, 'UNSPECIFIED' ) ;
#74 = ADVANCED_FACE ( 'NONE', ( #169 ), #184, .T. ) ;
#75 = DIRECTION ( 'NONE',  ( 1.000000000000000000, 3.061616997868381700E-016, 0.0000000000000000000 ) ) ;
#76 = APPROVAL_ROLE ( '' ) ;
#77 =( NAMED_UNIT ( * ) SI_UNIT ( $, .STERADIAN. ) SOLID_ANGLE_UNIT ( ) );
#78 = LOCAL_TIME ( 17, 7, 32.00000000000000000, #172 ) ;
#79 = APPROVAL_STATUS ( 'not_yet_approved' ) ;
#80 = CC_DESIGN_APPROVAL ( #156, ( #15 ) ) ;
#81 = APPLICATION_CONTEXT ( 'configuration controlled 3d designs of mechanical parts and assemblies' ) ;
#82 = CC_DESIGN_PERSON_AND_ORGANIZATION_ASSIGNMENT ( #129, #164, ( #170 ) ) ;
#83 = APPLICATION_PROTOCOL_DEFINITION ( 'international standard', 'config_control_design', 1994, #84 ) ;
#84 = APPLICATION_CONTEXT ( 'configuration controlled 3d designs of mechanical parts and assemblies' ) ;
#85 = DATE_AND_TIME ( #146, #179 ) ;
#86 = PERSON_AND_ORGANIZATION_ROLE ( 'design_owner' ) ;
#87 = MECHANICAL_CONTEXT ( 'NONE', #81, 'mechanical' ) ;
#88 = EDGE_CURVE ( 'NONE', #42, #177, #50, .T. ) ;
#89 = DIRECTION ( 'NONE',  ( -0.0000000000000000000, -0.0000000000000000000, -1.000000000000000000 ) ) ;
#90 = ORIENTED_EDGE ( 'NONE', *, *, #41, .T. ) ;
#91 = APPLICATION_PROTOCOL_DEFINITION ( 'international standard', 'config_control_design', 1994, #81 ) ;
#92 = APPROVAL_DATE_TIME ( #85, #73 ) ;
#93 = PRODUCT_RELATED_PRODUCT_CATEGORY ( 'detail', '', ( #180 ) ) ;
#94 = EDGE_LOOP ( 'NONE', ( #90, #114, #66, #21 ) ) ;
#95 = PERSON_AND_ORGANIZATION ( #195, #134 ) ;
#96 = DIRECTION ( 'NONE',  ( 1.000000000000000000, 0.0000000000000000000, 0.0000000000000000000 ) ) ;
#97 = DATE_TIME_ROLE ( 'classification_date' ) ;
#98 = ORIENTED_EDGE ( 'NONE', *, *, #14, .T. ) ;
#99 = CARTESIAN_POINT ( 'NONE',  ( 0.0000000000000000000, 0.0000000000000000000, 0.0000000000000000000 ) ) ;
#100 =( LENGTH_UNIT ( ) NAMED_UNIT ( * ) SI_UNIT ( $, .METRE. ) );
#101 = ADVANCED_FACE ( 'NONE', ( #133 ), #10, .T. ) ;
#102 = ORIENTED_EDGE ( 'NONE', *, *, #52, .T. ) ;
#103 = APPROVAL_PERSON_ORGANIZATION ( #36, #156, #76 ) ;
#104 = CC_DESIGN_APPROVAL ( #73, ( #168 ) ) ;
#105 = CARTESIAN_POINT ( 'NONE',  ( 3.749399456654637500E-032, -1.224646799147351500E-016, 0.0000000000000000000 ) ) ;
#106 = CIRCLE ( 'NONE', #112, 0.4999999999999996100 ) ;
#107 = AXIS2_PLACEMENT_3D ( 'NONE', #118, #127, #96 ) ;
#108 = APPROVAL ( #199, 'UNSPECIFIED' ) ;
#109 = AXIS2_PLACEMENT_3D ( 'NONE', #161, #89, #119 ) ;
#110 = LENGTH_MEASURE_WITH_UNIT ( LENGTH_MEASURE( 0.02539999999999999900 ), #100 );
#111 = DIRECTION ( 'NONE',  ( -1.000000000000000000, -3.061616997868381700E-016, 3.491481338843133400E-015 ) ) ;
#112 = AXIS2_PLACEMENT_3D ( 'NONE', #105, #23, #46 ) ;
#113 = PLANE ( 'NONE',  #142 ) ;
#114 = ORIENTED_EDGE ( 'NONE', *, *, #33, .T. ) ;
#115 = ORIENTED_EDGE ( 'NONE', *, *, #131, .T. ) ;
#116 =( GEOMETRIC_REPRESENTATION_CONTEXT ( 3 ) GLOBAL_UNCERTAINTY_ASSIGNED_CONTEXT ( ( #64 ) ) GLOBAL_UNIT_ASSIGNED_CONTEXT ( ( #166, #19, #77 ) ) REPRESENTATION_CONTEXT ( 'NONE', 'WORKASPACE' ) );
#117 = PERSON_AND_ORGANIZATION ( #195, #134 ) ;
#118 = CARTESIAN_POINT ( 'NONE',  ( 0.0000000000000000000, 0.0000000000000000000, 0.0000000000000000000 ) ) ;
#119 = DIRECTION ( 'NONE',  ( 1.000000000000000000, 0.0000000000000000000, 0.0000000000000000000 ) ) ;
#120 = AXIS2_PLACEMENT_3D ( 'NONE', #151, #150, #69 ) ;
#121 = SHAPE_DEFINITION_REPRESENTATION ( #32, #8 ) ;
#122 = LOCAL_TIME ( 17, 7, 32.00000000000000000, #17 ) ;
#123 = CC_DESIGN_DATE_AND_TIME_ASSIGNMENT ( #56, #58, ( #15 ) ) ;
#124 = DIRECTION ( 'NONE',  ( -3.491481338843133400E-015, -1.068957861474239200E-030, -1.000000000000000000 ) ) ;
#125 = AXIS2_PLACEMENT_3D ( 'NONE', #141, #189, #75 ) ;
#126 = DIRECTION ( 'NONE',  ( 1.000000000000000000, 3.061616997868381700E-016, -3.491481338843133400E-015 ) ) ;
#127 = DIRECTION ( 'NONE',  ( 0.0000000000000000000, 0.0000000000000000000, 1.000000000000000000 ) ) ;
#128 = PLANE ( 'NONE',  #181 ) ;
#129 = PERSON_AND_ORGANIZATION ( #195, #134 ) ;
#130 = CARTESIAN_POINT ( 'NONE',  ( 0.0000000000000000000, 0.0000000000000000000, 0.0000000000000000000 ) ) ;
#131 = EDGE_CURVE ( 'NONE', #177, #178, #20, .T. ) ;
#132 = VERTEX_POINT ( 'NONE', #204 ) ;
#133 = FACE_OUTER_BOUND ( 'NONE', #205, .T. ) ;
#134 = ORGANIZATION ( 'UNSPECIFIED', 'UNSPECIFIED', '' ) ;
#135 = CC_DESIGN_PERSON_AND_ORGANIZATION_ASSIGNMENT ( #158, #60, ( #15 ) ) ;
#136 = CARTESIAN_POINT ( 'NONE',  ( 0.0000000000000000000, 0.0000000000000000000, 0.0000000000000000000 ) ) ;
#137 = CC_DESIGN_PERSON_AND_ORGANIZATION_ASSIGNMENT ( #117, #202, ( #168 ) ) ;
#138 = CALENDAR_DATE ( 2016, 22, 12 ) ;
#139 = ORIENTED_EDGE ( 'NONE', *, *, #131, .F. ) ;
#140 = LOCAL_TIME ( 17, 7, 32.00000000000000000, #28 ) ;
#141 = CARTESIAN_POINT ( 'NONE',  ( 4.311809375152833200E-032, -1.408343819019454500E-016, 0.0000000000000000000 ) ) ;
#142 = AXIS2_PLACEMENT_3D ( 'NONE', #136, #4, #12 ) ;
#143 = EDGE_LOOP ( 'NONE', ( #37, #53, #34, #62 ) ) ;
#144 = DIRECTION ( 'NONE',  ( 0.0000000000000000000, 0.0000000000000000000, 1.000000000000000000 ) ) ;
#145 = ORIENTED_EDGE ( 'NONE', *, *, #3, .F. ) ;
#146 = CALENDAR_DATE ( 2016, 22, 12 ) ;
#147 = CARTESIAN_POINT ( 'NONE',  ( 0.0000000000000000000, 0.0000000000000000000, 0.0000000000000000000 ) ) ;
#148 = CARTESIAN_POINT ( 'NONE',  ( 0.0000000000000000000, 0.0000000000000000000, 0.0000000000000000000 ) ) ;
#149 = DIRECTION ( 'NONE',  ( 3.061616997868381700E-016, -1.000000000000000000, -0.0000000000000000000 ) ) ;
#150 = DIRECTION ( 'NONE',  ( 1.000000000000000000, 3.061616997868381700E-016, -3.491481338843133400E-015 ) ) ;
#151 = CARTESIAN_POINT ( 'NONE',  ( 0.0000000000000000000, 0.0000000000000000000, 0.0000000000000000000 ) ) ;
#152 = AXIS2_PLACEMENT_3D ( 'NONE', #187, #208, #174 ) ;
#153 = SECURITY_CLASSIFICATION_LEVEL ( 'unclassified' ) ;
#154 = CARTESIAN_POINT ( 'NONE',  ( -1.530808498934189400E-016, 0.4999999999999996100, -3.032960542342103800E-032 ) ) ;
#155 = DIRECTION ( 'NONE',  ( -3.491481338843133400E-015, -3.061616997868392000E-016, -1.000000000000000000 ) ) ;
#156 = APPROVAL ( #79, 'UNSPECIFIED' ) ;
#157 = ORIENTED_EDGE ( 'NONE', *, *, #41, .F. ) ;
#158 = PERSON_AND_ORGANIZATION ( #195, #134 ) ;
#159 = CARTESIAN_POINT ( 'NONE',  ( -1.760429773774316800E-016, 0.5749999999999996200, 4.409972281086761100E-017 ) ) ;
#160 = ORIENTED_EDGE ( 'NONE', *, *, #24, .F. ) ;
#161 = CARTESIAN_POINT ( 'NONE',  ( 0.0000000000000000000, 0.0000000000000000000, 0.0000000000000000000 ) ) ;
#162 = LINE ( 'NONE', #159, #2 ) ;
#163 = PERSON_AND_ORGANIZATION ( #195, #134 ) ;
#164 = PERSON_AND_ORGANIZATION_ROLE ( 'classification_officer' ) ;
#165 = CIRCLE ( 'NONE', #7, 0.5749999999999996200 ) ;
#166 =( CONVERSION_BASED_UNIT ( 'INCH', #110 ) LENGTH_UNIT ( ) NAMED_UNIT ( #39 ) );
#167 = DATE_AND_TIME ( #6, #78 ) ;
#168 = PRODUCT_DEFINITION_FORMATION_WITH_SPECIFIED_SOURCE ( 'ANY', '', #180, .NOT_KNOWN. ) ;
#169 = FACE_OUTER_BOUND ( 'NONE', #143, .T. ) ;
#170 = SECURITY_CLASSIFICATION ( '', '', #153 ) ;
#171 = APPROVAL_PERSON_ORGANIZATION ( #163, #108, #26 ) ;
#172 = COORDINATED_UNIVERSAL_TIME_OFFSET ( 8, 0, .BEHIND. ) ;
#173 = DIRECTION ( 'NONE',  ( 1.000000000000000000, 6.123233995736768500E-017, 0.0000000000000000000 ) ) ;
#174 = DIRECTION ( 'NONE',  ( -3.491481338843133400E-015, -1.068957861474239200E-030, -1.000000000000000000 ) ) ;
#175 = EDGE_LOOP ( 'NONE', ( #102, #157, #98 ) ) ;
#176 = DATE_AND_TIME ( #194, #122 ) ;
#177 = VERTEX_POINT ( 'NONE', #211 ) ;
#178 = VERTEX_POINT ( 'NONE', #72 ) ;
#179 = LOCAL_TIME ( 17, 7, 32.00000000000000000, #213 ) ;
#180 = PRODUCT ( '1_2in CORNER FILLER 14 Ga', '1_2in CORNER FILLER 14 Ga', '', ( #87 ) ) ;
#181 = AXIS2_PLACEMENT_3D ( 'NONE', #147, #144, #185 ) ;
#182 = FACE_OUTER_BOUND ( 'NONE', #94, .T. ) ;
#183 = ADVANCED_FACE ( 'NONE', ( #182 ), #128, .T. ) ;
#184 = PLANE ( 'NONE',  #29 ) ;
#185 = DIRECTION ( 'NONE',  ( 1.000000000000000000, 0.0000000000000000000, -0.0000000000000000000 ) ) ;
#186 = LOCAL_TIME ( 17, 7, 32.00000000000000000, #207 ) ;
#187 = CARTESIAN_POINT ( 'NONE',  ( 0.0000000000000000000, 0.0000000000000000000, 0.0000000000000000000 ) ) ;
#188 = DIRECTION ( 'NONE',  ( -3.491481338843133000E-015, -2.449293598294715800E-016, -1.000000000000000000 ) ) ;
#189 = DIRECTION ( 'NONE',  ( 3.061616997868381700E-016, -1.000000000000000000, -0.0000000000000000000 ) ) ;
#190 = VECTOR ( 'NONE', #188, 39.37007874015748100 ) ;
#191 = APPROVAL_PERSON_ORGANIZATION ( #95, #73, #47 ) ;
#192 = DATE_AND_TIME ( #38, #140 ) ;
#193 = CARTESIAN_POINT ( 'NONE',  ( -1.745740669421565300E-015, -1.224646799147356900E-016, -0.4999999999999996100 ) ) ;
#194 = CALENDAR_DATE ( 2016, 22, 12 ) ;
#195 = PERSON ( 'UNSPECIFIED', 'UNSPECIFIED', 'UNSPECIFIED', ('UNSPECIFIED'), ('UNSPECIFIED'), ('UNSPECIFIED') ) ;
#196 = VERTEX_POINT ( 'NONE', #154 ) ;
#197 = APPROVAL_DATE_TIME ( #167, #156 ) ;
#198 = FACE_OUTER_BOUND ( 'NONE', #25, .T. ) ;
#199 = APPROVAL_STATUS ( 'not_yet_approved' ) ;
#200 = ADVANCED_FACE ( 'NONE', ( #68 ), #70, .F. ) ;
#201 = AXIS2_PLACEMENT_3D ( 'NONE', #130, #126, #124 ) ;
#202 = PERSON_AND_ORGANIZATION_ROLE ( 'creator' ) ;
#203 = ORIENTED_EDGE ( 'NONE', *, *, #88, .F. ) ;
#204 = CARTESIAN_POINT ( 'NONE',  ( 0.5749999999999996200, 3.520859547548637600E-017, 0.0000000000000000000 ) ) ;
#205 = EDGE_LOOP ( 'NONE', ( #160, #145, #115 ) ) ;
#206 = DIRECTION ( 'NONE',  ( 0.0000000000000000000, 0.0000000000000000000, 1.000000000000000000 ) ) ;
#207 = COORDINATED_UNIVERSAL_TIME_OFFSET ( 8, 0, .BEHIND. ) ;
#208 = DIRECTION ( 'NONE',  ( 1.000000000000000000, 3.061616997868381700E-016, -3.491481338843133400E-015 ) ) ;
#209 = DIRECTION ( 'NONE',  ( 3.061616997868361400E-016, -1.000000000000000000, -5.879963041449016600E-016 ) ) ;
#210 = DIRECTION ( 'NONE',  ( 1.000000000000000000, 3.061616997868381700E-016, 0.0000000000000000000 ) ) ;
#211 = CARTESIAN_POINT ( 'NONE',  ( -2.007601769834800500E-015, -1.408343819019460500E-016, -0.5749999999999996200 ) ) ;
#212 = CARTESIAN_POINT ( 'NONE',  ( -1.745740669421565300E-015, -1.224646799147356900E-016, -0.4999999999999996100 ) ) ;
#213 = COORDINATED_UNIVERSAL_TIME_OFFSET ( 8, 0, .BEHIND. ) ;
ENDSEC;
END-ISO-10303-21;
